ISO-10303-21;
HEADER;
FILE_DESCRIPTION (( 'STEP AP203' ),
    '1' );
FILE_NAME ('581138040.STEP',
    '2017-07-28T19:15:11',
    ( '' ),
    ( '' ),
    'SwSTEP 2.0',
    'SolidWorks 2017',
    '' );
FILE_SCHEMA (( 'CONFIG_CONTROL_DESIGN' ));
ENDSEC;

DATA;
#1 = CC_DESIGN_DATE_AND_TIME_ASSIGNMENT ( #208, #184, ( #183 ) ) ;
#2 = CARTESIAN_POINT ( 'NONE',  ( -2.440944881889763900, 0.0000000000000000000, 0.0000000000000000000 ) ) ;
#3 = DIRECTION ( 'NONE',  ( -1.000000000000000000, -0.0000000000000000000, 0.0000000000000000000 ) ) ;
#4 = PERSON_AND_ORGANIZATION ( #190, #128 ) ;
#5 = FACE_OUTER_BOUND ( 'NONE', #103, .T. ) ;
#6 = DIRECTION ( 'NONE',  ( -1.000000000000000000, 0.0000000000000000000, 0.0000000000000000000 ) ) ;
#7 = VERTEX_POINT ( 'NONE', #207 ) ;
#8 = PERSON_AND_ORGANIZATION_ROLE ( 'classification_officer' ) ;
#9 = AXIS2_PLACEMENT_3D ( 'NONE', #192, #181, #214 ) ;
#10 = PERSON_AND_ORGANIZATION_ROLE ( 'design_owner' ) ;
#11 = APPROVAL_PERSON_ORGANIZATION ( #156, #149, #167 ) ;
#12 = CLOSED_SHELL ( 'NONE', ( #16, #177, #206, #148, #49, #170, #104 ) ) ;
#13 = PRODUCT_DEFINITION_FORMATION_WITH_SPECIFIED_SOURCE ( 'ANY', '', #84, .NOT_KNOWN. ) ;
#14 = COORDINATED_UNIVERSAL_TIME_OFFSET ( 5, 0, .BEHIND. ) ;
#15 = PERSON_AND_ORGANIZATION ( #190, #128 ) ;
#16 = ADVANCED_FACE ( 'NONE', ( #58, #165 ), #93, .T. ) ;
#17 = CALENDAR_DATE ( 2017, 28, 7 ) ;
#18 = CARTESIAN_POINT ( 'NONE',  ( 0.0000000000000000000, 0.0000000000000000000, 0.0000000000000000000 ) ) ;
#19 = COORDINATED_UNIVERSAL_TIME_OFFSET ( 5, 0, .BEHIND. ) ;
#20 = DIRECTION ( 'NONE',  ( 0.0000000000000000000, 0.0000000000000000000, -1.000000000000000000 ) ) ;
#21 = AXIS2_PLACEMENT_3D ( 'NONE', #94, #81, #47 ) ;
#22 = LOCAL_TIME ( 15, 15, 11.00000000000000000, #121 ) ;
#23 = ORIENTED_EDGE ( 'NONE', *, *, #142, .T. ) ;
#24 = AXIS2_PLACEMENT_3D ( 'NONE', #18, #205, #27 ) ;
#25 =( NAMED_UNIT ( * ) SI_UNIT ( $, .STERADIAN. ) SOLID_ANGLE_UNIT ( ) );
#26 = EDGE_CURVE ( 'NONE', #117, #117, #60, .T. ) ;
#27 = DIRECTION ( 'NONE',  ( 1.000000000000000000, 0.0000000000000000000, 0.0000000000000000000 ) ) ;
#28 = CC_DESIGN_PERSON_AND_ORGANIZATION_ASSIGNMENT ( #188, #8, ( #33 ) ) ;
#29 = ORIENTED_EDGE ( 'NONE', *, *, #26, .F. ) ;
#30 = APPROVAL ( #225, 'UNSPECIFIED' ) ;
#31 = FACE_OUTER_BOUND ( 'NONE', #168, .T. ) ;
#32 = EDGE_LOOP ( 'NONE', ( #77 ) ) ;
#33 = SECURITY_CLASSIFICATION ( '', '', #130 ) ;
#34 = PERSON_AND_ORGANIZATION ( #190, #128 ) ;
#35 = FACE_OUTER_BOUND ( 'NONE', #32, .T. ) ;
#36 = DIRECTION ( 'NONE',  ( -1.000000000000000000, 0.0000000000000000000, 0.0000000000000000000 ) ) ;
#37 = DIRECTION ( 'NONE',  ( 0.0000000000000000000, 0.0000000000000000000, -1.000000000000000000 ) ) ;
#38 = CONICAL_SURFACE ( 'NONE', #42, 2.460629921259842600, 0.3028848683749710800 ) ;
#39 = PLANE ( 'NONE',  #107 ) ;
#40 = FACE_BOUND ( 'NONE', #69, .T. ) ;
#41 = ORIENTED_EDGE ( 'NONE', *, *, #221, .T. ) ;
#42 = AXIS2_PLACEMENT_3D ( 'NONE', #91, #3, #109 ) ;
#43 = APPROVAL ( #99, 'UNSPECIFIED' ) ;
#44 = LOCAL_TIME ( 15, 15, 11.00000000000000000, #157 ) ;
#45 =( CONVERSION_BASED_UNIT ( 'INCH', #137 ) LENGTH_UNIT ( ) NAMED_UNIT ( #75 ) );
#46 = PERSON_AND_ORGANIZATION_ROLE ( 'creator' ) ;
#47 = DIRECTION ( 'NONE',  ( 0.0000000000000000000, 0.0000000000000000000, -1.000000000000000000 ) ) ;
#48 = FACE_BOUND ( 'NONE', #210, .T. ) ;
#49 = ADVANCED_FACE ( 'NONE', ( #147, #198 ), #39, .T. ) ;
#50 = AXIS2_PLACEMENT_3D ( 'NONE', #70, #141, #122 ) ;
#51 = DIRECTION ( 'NONE',  ( 0.0000000000000000000, 0.0000000000000000000, -1.000000000000000000 ) ) ;
#52 = VERTEX_POINT ( 'NONE', #227 ) ;
#53 = PERSON_AND_ORGANIZATION ( #190, #128 ) ;
#54 = CARTESIAN_POINT ( 'NONE',  ( -3.149606299212598600, 0.0000000000000000000, 0.0000000000000000000 ) ) ;
#55 = AXIS2_PLACEMENT_3D ( 'NONE', #110, #123, #145 ) ;
#56 = CARTESIAN_POINT ( 'NONE',  ( -3.149606299212598600, 0.0000000000000000000, -1.771653543307086600 ) ) ;
#57 = CYLINDRICAL_SURFACE ( 'NONE', #55, 2.165354330708661600 ) ;
#58 = FACE_OUTER_BOUND ( 'NONE', #180, .T. ) ;
#59 = APPROVAL_STATUS ( 'not_yet_approved' ) ;
#60 = CIRCLE ( 'NONE', #119, 1.771653543307086600 ) ;
#61 = APPLICATION_PROTOCOL_DEFINITION ( 'international standard', 'config_control_design', 1994, #151 ) ;
#62 = DATE_AND_TIME ( #222, #96 ) ;
#63 = AXIS2_PLACEMENT_3D ( 'NONE', #68, #178, #51 ) ;
#64 = FACE_OUTER_BOUND ( 'NONE', #101, .T. ) ;
#65 = ORIENTED_EDGE ( 'NONE', *, *, #26, .T. ) ;
#66 = APPROVAL_PERSON_ORGANIZATION ( #53, #30, #98 ) ;
#67 = CC_DESIGN_APPROVAL ( #149, ( #13 ) ) ;
#68 = CARTESIAN_POINT ( 'NONE',  ( 0.0000000000000000000, 0.0000000000000000000, 0.0000000000000000000 ) ) ;
#69 = EDGE_LOOP ( 'NONE', ( #23 ) ) ;
#70 = CARTESIAN_POINT ( 'NONE',  ( -2.440944881889763900, 2.785433070866142100, -6.822118073459292200E-016 ) ) ;
#71 = DESIGN_CONTEXT ( 'detailed design', #116, 'design' ) ;
#72 = CARTESIAN_POINT ( 'NONE',  ( 0.0000000000000000000, 1.968503937007874100, -4.821284857568425000E-016 ) ) ;
#73 = DIRECTION ( 'NONE',  ( 0.0000000000000000000, 0.0000000000000000000, -1.000000000000000000 ) ) ;
#74 = CC_DESIGN_DATE_AND_TIME_ASSIGNMENT ( #87, #115, ( #33 ) ) ;
#75 = DIMENSIONAL_EXPONENTS ( 1.000000000000000000, 0.0000000000000000000, 0.0000000000000000000, 0.0000000000000000000, 0.0000000000000000000, 0.0000000000000000000, 0.0000000000000000000 ) ;
#76 = PERSON_AND_ORGANIZATION ( #190, #128 ) ;
#77 = ORIENTED_EDGE ( 'NONE', *, *, #193, .F. ) ;
#78 =( NAMED_UNIT ( * ) PLANE_ANGLE_UNIT ( ) SI_UNIT ( $, .RADIAN. ) );
#79 = PERSON_AND_ORGANIZATION_ROLE ( 'creator' ) ;
#80 = ORIENTED_EDGE ( 'NONE', *, *, #221, .F. ) ;
#81 = DIRECTION ( 'NONE',  ( -1.000000000000000000, -0.0000000000000000000, -0.0000000000000000000 ) ) ;
#82 = CARTESIAN_POINT ( 'NONE',  ( -2.440944881889763900, 0.0000000000000000000, 2.460629921259842100 ) ) ;
#83 = LOCAL_TIME ( 15, 15, 11.00000000000000000, #19 ) ;
#84 = PRODUCT ( '581138040', '581138040', '', ( #131 ) ) ;
#85 = APPROVAL_PERSON_ORGANIZATION ( #4, #43, #203 ) ;
#86 = CARTESIAN_POINT ( 'NONE',  ( 0.0000000000000000000, 0.0000000000000000000, -1.771653543307086600 ) ) ;
#87 = DATE_AND_TIME ( #129, #44 ) ;
#88 = CC_DESIGN_APPROVAL ( #30, ( #33 ) ) ;
#89 = FACE_OUTER_BOUND ( 'NONE', #172, .T. ) ;
#90 = DIRECTION ( 'NONE',  ( 0.0000000000000000000, 0.0000000000000000000, -1.000000000000000000 ) ) ;
#91 = CARTESIAN_POINT ( 'NONE',  ( -2.440944881889764300, 0.0000000000000000000, 0.0000000000000000000 ) ) ;
#92 = PLANE ( 'NONE',  #50 ) ;
#93 = PLANE ( 'NONE',  #153 ) ;
#94 = CARTESIAN_POINT ( 'NONE',  ( -3.149606299212598600, 0.0000000000000000000, 0.0000000000000000000 ) ) ;
#95 = CC_DESIGN_APPROVAL ( #43, ( #183 ) ) ;
#96 = LOCAL_TIME ( 15, 15, 11.00000000000000000, #14 ) ;
#97 =( LENGTH_UNIT ( ) NAMED_UNIT ( * ) SI_UNIT ( $, .METRE. ) );
#98 = APPROVAL_ROLE ( '' ) ;
#99 = APPROVAL_STATUS ( 'not_yet_approved' ) ;
#100 = APPROVAL_DATE_TIME ( #175, #149 ) ;
#101 = EDGE_LOOP ( 'NONE', ( #41 ) ) ;
#102 = EDGE_LOOP ( 'NONE', ( #80 ) ) ;
#103 = EDGE_LOOP ( 'NONE', ( #159 ) ) ;
#104 = ADVANCED_FACE ( 'NONE', ( #89, #35 ), #57, .T. ) ;
#105 = DIRECTION ( 'NONE',  ( -1.000000000000000000, -0.0000000000000000000, -0.0000000000000000000 ) ) ;
#106 = CYLINDRICAL_SURFACE ( 'NONE', #9, 1.771653543307086600 ) ;
#107 = AXIS2_PLACEMENT_3D ( 'NONE', #72, #144, #20 ) ;
#108 = CIRCLE ( 'NONE', #63, 1.771653543307086600 ) ;
#109 = DIRECTION ( 'NONE',  ( 0.0000000000000000000, 0.0000000000000000000, 1.000000000000000000 ) ) ;
#110 = CARTESIAN_POINT ( 'NONE',  ( -0.7480314960629921300, 0.0000000000000000000, 0.0000000000000000000 ) ) ;
#111 = CARTESIAN_POINT ( 'NONE',  ( -3.149606299212598600, 2.440944881889763900, -5.978393223384843700E-016 ) ) ;
#112 = DIRECTION ( 'NONE',  ( 0.0000000000000000000, 0.0000000000000000000, -1.000000000000000000 ) ) ;
#113 =( GEOMETRIC_REPRESENTATION_CONTEXT ( 3 ) GLOBAL_UNCERTAINTY_ASSIGNED_CONTEXT ( ( #200 ) ) GLOBAL_UNIT_ASSIGNED_CONTEXT ( ( #45, #78, #25 ) ) REPRESENTATION_CONTEXT ( 'NONE', 'WORKASPACE' ) );
#114 = ORIENTED_EDGE ( 'NONE', *, *, #152, .F. ) ;
#115 = DATE_TIME_ROLE ( 'classification_date' ) ;
#116 = APPLICATION_CONTEXT ( 'configuration controlled 3d designs of mechanical parts and assemblies' ) ;
#117 = VERTEX_POINT ( 'NONE', #56 ) ;
#118 = DATE_AND_TIME ( #182, #83 ) ;
#119 = AXIS2_PLACEMENT_3D ( 'NONE', #54, #161, #37 ) ;
#120 = EDGE_LOOP ( 'NONE', ( #126 ) ) ;
#121 = COORDINATED_UNIVERSAL_TIME_OFFSET ( 5, 0, .BEHIND. ) ;
#122 = DIRECTION ( 'NONE',  ( 0.0000000000000000000, 0.0000000000000000000, -1.000000000000000000 ) ) ;
#123 = DIRECTION ( 'NONE',  ( 1.000000000000000000, 0.0000000000000000000, 0.0000000000000000000 ) ) ;
#124 = SHAPE_DEFINITION_REPRESENTATION ( #201, #135 ) ;
#125 = CYLINDRICAL_SURFACE ( 'NONE', #169, 3.110236220472441200 ) ;
#126 = ORIENTED_EDGE ( 'NONE', *, *, #193, .T. ) ;
#127 = PERSON_AND_ORGANIZATION ( #190, #128 ) ;
#128 = ORGANIZATION ( 'UNSPECIFIED', 'UNSPECIFIED', '' ) ;
#129 = CALENDAR_DATE ( 2017, 28, 7 ) ;
#130 = SECURITY_CLASSIFICATION_LEVEL ( 'unclassified' ) ;
#131 = MECHANICAL_CONTEXT ( 'NONE', #151, 'mechanical' ) ;
#132 = ORIENTED_EDGE ( 'NONE', *, *, #152, .T. ) ;
#133 = VERTEX_POINT ( 'NONE', #185 ) ;
#134 = EDGE_LOOP ( 'NONE', ( #29 ) ) ;
#135 = ADVANCED_BREP_SHAPE_REPRESENTATION ( '581138040', ( #228, #24 ), #113 ) ;
#136 = CARTESIAN_POINT ( 'NONE',  ( 0.0000000000000000000, 0.0000000000000000000, 0.0000000000000000000 ) ) ;
#137 = LENGTH_MEASURE_WITH_UNIT ( LENGTH_MEASURE( 0.02539999999999999900 ), #97 );
#138 = EDGE_LOOP ( 'NONE', ( #217 ) ) ;
#139 = CC_DESIGN_PERSON_AND_ORGANIZATION_ASSIGNMENT ( #15, #79, ( #183 ) ) ;
#140 = DIRECTION ( 'NONE',  ( 1.000000000000000000, 0.0000000000000000000, 0.0000000000000000000 ) ) ;
#141 = DIRECTION ( 'NONE',  ( 1.000000000000000000, 0.0000000000000000000, 0.0000000000000000000 ) ) ;
#142 = EDGE_CURVE ( 'NONE', #231, #231, #216, .T. ) ;
#143 = DIRECTION ( 'NONE',  ( 1.261617073437677800E-016, 1.000000000000000000, -2.449212707644750600E-016 ) ) ;
#144 = DIRECTION ( 'NONE',  ( 1.000000000000000000, 0.0000000000000000000, 0.0000000000000000000 ) ) ;
#145 = DIRECTION ( 'NONE',  ( 0.0000000000000000000, 0.0000000000000000000, -1.000000000000000000 ) ) ;
#146 = CALENDAR_DATE ( 2017, 28, 7 ) ;
#147 = FACE_BOUND ( 'NONE', #189, .T. ) ;
#148 = ADVANCED_FACE ( 'NONE', ( #48, #224 ), #92, .T. ) ;
#149 = APPROVAL ( #59, 'UNSPECIFIED' ) ;
#150 = PERSON_AND_ORGANIZATION_ROLE ( 'design_supplier' ) ;
#151 = APPLICATION_CONTEXT ( 'configuration controlled 3d designs of mechanical parts and assemblies' ) ;
#152 = EDGE_CURVE ( 'NONE', #173, #173, #108, .T. ) ;
#153 = AXIS2_PLACEMENT_3D ( 'NONE', #111, #6, #199 ) ;
#154 = ORIENTED_EDGE ( 'NONE', *, *, #142, .F. ) ;
#155 = APPROVAL_DATE_TIME ( #62, #43 ) ;
#156 = PERSON_AND_ORGANIZATION ( #190, #128 ) ;
#157 = COORDINATED_UNIVERSAL_TIME_OFFSET ( 5, 0, .BEHIND. ) ;
#158 = CARTESIAN_POINT ( 'NONE',  ( -2.795275590551181500, 0.0000000000000000000, 0.0000000000000000000 ) ) ;
#159 = ORIENTED_EDGE ( 'NONE', *, *, #194, .F. ) ;
#160 = CARTESIAN_POINT ( 'NONE',  ( -1.496062992125984500, 0.0000000000000000000, 0.0000000000000000000 ) ) ;
#161 = DIRECTION ( 'NONE',  ( 1.000000000000000000, 0.0000000000000000000, 0.0000000000000000000 ) ) ;
#162 = DIRECTION ( 'NONE',  ( 1.000000000000000000, 0.0000000000000000000, 0.0000000000000000000 ) ) ;
#163 = CIRCLE ( 'NONE', #187, 2.165354330708661600 ) ;
#164 = AXIS2_PLACEMENT_3D ( 'NONE', #212, #232, #211 ) ;
#165 = FACE_BOUND ( 'NONE', #196, .T. ) ;
#166 = CIRCLE ( 'NONE', #195, 3.110236220472441200 ) ;
#167 = APPROVAL_ROLE ( '' ) ;
#168 = EDGE_LOOP ( 'NONE', ( #114 ) ) ;
#169 = AXIS2_PLACEMENT_3D ( 'NONE', #158, #140, #112 ) ;
#170 = ADVANCED_FACE ( 'NONE', ( #171, #40 ), #38, .T. ) ;
#171 = FACE_OUTER_BOUND ( 'NONE', #138, .T. ) ;
#172 = EDGE_LOOP ( 'NONE', ( #154 ) ) ;
#173 = VERTEX_POINT ( 'NONE', #86 ) ;
#174 = FACE_OUTER_BOUND ( 'NONE', #134, .T. ) ;
#175 = DATE_AND_TIME ( #146, #22 ) ;
#176 = AXIS2_PLACEMENT_3D ( 'NONE', #160, #36, #143 ) ;
#177 = ADVANCED_FACE ( 'NONE', ( #5, #64 ), #125, .T. ) ;
#178 = DIRECTION ( 'NONE',  ( -1.000000000000000000, -0.0000000000000000000, -0.0000000000000000000 ) ) ;
#179 = CC_DESIGN_SECURITY_CLASSIFICATION ( #33, ( #13 ) ) ;
#180 = EDGE_LOOP ( 'NONE', ( #197 ) ) ;
#181 = DIRECTION ( 'NONE',  ( 1.000000000000000000, 0.0000000000000000000, 0.0000000000000000000 ) ) ;
#182 = CALENDAR_DATE ( 2017, 28, 7 ) ;
#183 = PRODUCT_DEFINITION ( 'UNKNOWN', '', #13, #71 ) ;
#184 = DATE_TIME_ROLE ( 'creation_date' ) ;
#185 = CARTESIAN_POINT ( 'NONE',  ( -3.149606299212598600, 0.0000000000000000000, -3.110236220472441200 ) ) ;
#186 = VERTEX_POINT ( 'NONE', #82 ) ;
#187 = AXIS2_PLACEMENT_3D ( 'NONE', #136, #162, #73 ) ;
#188 = PERSON_AND_ORGANIZATION ( #190, #128 ) ;
#189 = EDGE_LOOP ( 'NONE', ( #132 ) ) ;
#190 = PERSON ( 'UNSPECIFIED', 'UNSPECIFIED', 'UNSPECIFIED', ('UNSPECIFIED'), ('UNSPECIFIED'), ('UNSPECIFIED') ) ;
#191 = CC_DESIGN_PERSON_AND_ORGANIZATION_ASSIGNMENT ( #127, #150, ( #13 ) ) ;
#192 = CARTESIAN_POINT ( 'NONE',  ( -1.574803149606299300, 0.0000000000000000000, 0.0000000000000000000 ) ) ;
#193 = EDGE_CURVE ( 'NONE', #52, #52, #163, .T. ) ;
#194 = EDGE_CURVE ( 'NONE', #133, #133, #215, .T. ) ;
#195 = AXIS2_PLACEMENT_3D ( 'NONE', #2, #105, #90 ) ;
#196 = EDGE_LOOP ( 'NONE', ( #65 ) ) ;
#197 = ORIENTED_EDGE ( 'NONE', *, *, #194, .T. ) ;
#198 = FACE_OUTER_BOUND ( 'NONE', #120, .T. ) ;
#199 = DIRECTION ( 'NONE',  ( 0.0000000000000000000, 0.0000000000000000000, 1.000000000000000000 ) ) ;
#200 = UNCERTAINTY_MEASURE_WITH_UNIT (LENGTH_MEASURE( 1.000000000000000100E-005 ), #45, 'distance_accuracy_value', 'NONE');
#201 = PRODUCT_DEFINITION_SHAPE ( 'NONE', 'NONE',  #183 ) ;
#202 = PRODUCT_RELATED_PRODUCT_CATEGORY ( 'detail', '', ( #84 ) ) ;
#203 = APPROVAL_ROLE ( '' ) ;
#204 = LOCAL_TIME ( 15, 15, 11.00000000000000000, #209 ) ;
#205 = DIRECTION ( 'NONE',  ( 0.0000000000000000000, 0.0000000000000000000, 1.000000000000000000 ) ) ;
#206 = ADVANCED_FACE ( 'NONE', ( #31, #174 ), #106, .F. ) ;
#207 = CARTESIAN_POINT ( 'NONE',  ( -2.440944881889763900, 0.0000000000000000000, -3.110236220472441200 ) ) ;
#208 = DATE_AND_TIME ( #17, #204 ) ;
#209 = COORDINATED_UNIVERSAL_TIME_OFFSET ( 5, 0, .BEHIND. ) ;
#210 = EDGE_LOOP ( 'NONE', ( #220 ) ) ;
#211 = DIRECTION ( 'NONE',  ( 0.0000000000000000000, 0.0000000000000000000, 1.000000000000000000 ) ) ;
#212 = CARTESIAN_POINT ( 'NONE',  ( -2.440944881889763900, 0.0000000000000000000, 0.0000000000000000000 ) ) ;
#213 = CC_DESIGN_PERSON_AND_ORGANIZATION_ASSIGNMENT ( #76, #46, ( #13 ) ) ;
#214 = DIRECTION ( 'NONE',  ( 0.0000000000000000000, 0.0000000000000000000, -1.000000000000000000 ) ) ;
#215 = CIRCLE ( 'NONE', #21, 3.110236220472441200 ) ;
#216 = CIRCLE ( 'NONE', #176, 2.165354330708661600 ) ;
#217 = ORIENTED_EDGE ( 'NONE', *, *, #230, .F. ) ;
#218 = CC_DESIGN_PERSON_AND_ORGANIZATION_ASSIGNMENT ( #34, #10, ( #84 ) ) ;
#219 = APPROVAL_DATE_TIME ( #118, #30 ) ;
#220 = ORIENTED_EDGE ( 'NONE', *, *, #230, .T. ) ;
#221 = EDGE_CURVE ( 'NONE', #7, #7, #166, .T. ) ;
#222 = CALENDAR_DATE ( 2017, 28, 7 ) ;
#223 = CARTESIAN_POINT ( 'NONE',  ( -1.496062992125984300, 2.165354330708661600, -5.303413343325247800E-016 ) ) ;
#224 = FACE_OUTER_BOUND ( 'NONE', #102, .T. ) ;
#225 = APPROVAL_STATUS ( 'not_yet_approved' ) ;
#226 = APPLICATION_PROTOCOL_DEFINITION ( 'international standard', 'config_control_design', 1994, #116 ) ;
#227 = CARTESIAN_POINT ( 'NONE',  ( 0.0000000000000000000, 0.0000000000000000000, -2.165354330708661600 ) ) ;
#228 = MANIFOLD_SOLID_BREP ( '1', #12 ) ;
#229 = CIRCLE ( 'NONE', #164, 2.460629921259842100 ) ;
#230 = EDGE_CURVE ( 'NONE', #186, #186, #229, .T. ) ;
#231 = VERTEX_POINT ( 'NONE', #223 ) ;
#232 = DIRECTION ( 'NONE',  ( -1.000000000000000000, -0.0000000000000000000, 0.0000000000000000000 ) ) ;
ENDSEC;
END-ISO-10303-21;
