ISO-10303-21;
HEADER;
FILE_DESCRIPTION (( 'STEP AP203' ),
    '1' );
FILE_NAME ('581138080.STEP',
    '2017-07-28T19:24:02',
    ( '' ),
    ( '' ),
    'SwSTEP 2.0',
    'SolidWorks 2017',
    '' );
FILE_SCHEMA (( 'CONFIG_CONTROL_DESIGN' ));
ENDSEC;

DATA;
#1 = PRODUCT ( '581138080', '581138080', '', ( #139 ) ) ;
#2 = EDGE_LOOP ( 'NONE', ( #163 ) ) ;
#3 = DESIGN_CONTEXT ( 'detailed design', #33, 'design' ) ;
#4 = APPROVAL_STATUS ( 'not_yet_approved' ) ;
#5 = VERTEX_POINT ( 'NONE', #224 ) ;
#6 = ORIENTED_EDGE ( 'NONE', *, *, #27, .T. ) ;
#7 = DIRECTION ( 'NONE',  ( 0.0000000000000000000, 0.0000000000000000000, -1.000000000000000000 ) ) ;
#8 = VERTEX_POINT ( 'NONE', #40 ) ;
#9 = CARTESIAN_POINT ( 'NONE',  ( -8.267716535433070400, 0.0000000000000000000, -3.220472440944881900 ) ) ;
#10 = PLANE ( 'NONE',  #95 ) ;
#11 = DIRECTION ( 'NONE',  ( 0.0000000000000000000, 0.0000000000000000000, -1.000000000000000000 ) ) ;
#12 = AXIS2_PLACEMENT_3D ( 'NONE', #71, #118, #11 ) ;
#13 = DIRECTION ( 'NONE',  ( 0.0000000000000000000, 0.0000000000000000000, -1.000000000000000000 ) ) ;
#14 = PERSON_AND_ORGANIZATION ( #201, #91 ) ;
#15 = EDGE_CURVE ( 'NONE', #144, #144, #23, .T. ) ;
#16 = FACE_OUTER_BOUND ( 'NONE', #97, .T. ) ;
#17 = CC_DESIGN_PERSON_AND_ORGANIZATION_ASSIGNMENT ( #192, #116, ( #195 ) ) ;
#18 = MANIFOLD_SOLID_BREP ( '1', #51 ) ;
#19 = CONICAL_SURFACE ( 'NONE', #162, 4.566929133858268500, 0.3985224456664199800 ) ;
#20 = CALENDAR_DATE ( 2017, 28, 7 ) ;
#21 = DIRECTION ( 'NONE',  ( 1.000000000000000000, 0.0000000000000000000, 0.0000000000000000000 ) ) ;
#22 = COORDINATED_UNIVERSAL_TIME_OFFSET ( 5, 0, .BEHIND. ) ;
#23 = CIRCLE ( 'NONE', #134, 5.275590551181102800 ) ;
#24 = ORIENTED_EDGE ( 'NONE', *, *, #72, .T. ) ;
#25 = AXIS2_PLACEMENT_3D ( 'NONE', #100, #155, #21 ) ;
#26 = DIRECTION ( 'NONE',  ( 0.0000000000000000000, 0.0000000000000000000, 1.000000000000000000 ) ) ;
#27 = EDGE_CURVE ( 'NONE', #5, #5, #179, .T. ) ;
#28 = CC_DESIGN_SECURITY_CLASSIFICATION ( #217, ( #69 ) ) ;
#29 = CC_DESIGN_PERSON_AND_ORGANIZATION_ASSIGNMENT ( #197, #38, ( #217 ) ) ;
#30 = CIRCLE ( 'NONE', #172, 3.937007874015748100 ) ;
#31 = DATE_AND_TIME ( #128, #41 ) ;
#32 = ORIENTED_EDGE ( 'NONE', *, *, #15, .T. ) ;
#33 = APPLICATION_CONTEXT ( 'configuration controlled 3d designs of mechanical parts and assemblies' ) ;
#34 = EDGE_LOOP ( 'NONE', ( #152 ) ) ;
#35 = EDGE_LOOP ( 'NONE', ( #73 ) ) ;
#36 = DATE_AND_TIME ( #20, #212 ) ;
#37 = ORIENTED_EDGE ( 'NONE', *, *, #110, .T. ) ;
#38 = PERSON_AND_ORGANIZATION_ROLE ( 'classification_officer' ) ;
#39 = APPLICATION_CONTEXT ( 'configuration controlled 3d designs of mechanical parts and assemblies' ) ;
#40 = CARTESIAN_POINT ( 'NONE',  ( -3.887824220410967900, 0.0000000000000000000, 3.937007874015748100 ) ) ;
#41 = LOCAL_TIME ( 15, 24, 2.000000000000000000, #22 ) ;
#42 = CALENDAR_DATE ( 2017, 28, 7 ) ;
#43 = DIRECTION ( 'NONE',  ( 0.0000000000000000000, 0.0000000000000000000, -1.000000000000000000 ) ) ;
#44 = LOCAL_TIME ( 15, 24, 2.000000000000000000, #124 ) ;
#45 = ORIENTED_EDGE ( 'NONE', *, *, #72, .F. ) ;
#46 = DIRECTION ( 'NONE',  ( -1.000000000000000000, -0.0000000000000000000, 0.0000000000000000000 ) ) ;
#47 = DIRECTION ( 'NONE',  ( 0.0000000000000000000, 0.0000000000000000000, -1.000000000000000000 ) ) ;
#48 = AXIS2_PLACEMENT_3D ( 'NONE', #68, #158, #47 ) ;
#49 = UNCERTAINTY_MEASURE_WITH_UNIT (LENGTH_MEASURE( 1.000000000000000100E-005 ), #223, 'distance_accuracy_value', 'NONE');
#50 = FACE_OUTER_BOUND ( 'NONE', #2, .T. ) ;
#51 = CLOSED_SHELL ( 'NONE', ( #178, #55, #153, #175, #123, #149, #165 ) ) ;
#52 = FACE_OUTER_BOUND ( 'NONE', #216, .T. ) ;
#53 = DIRECTION ( 'NONE',  ( -1.000000000000000000, -0.0000000000000000000, -0.0000000000000000000 ) ) ;
#54 = AXIS2_PLACEMENT_3D ( 'NONE', #121, #102, #207 ) ;
#55 = ADVANCED_FACE ( 'NONE', ( #92, #156 ), #171, .T. ) ;
#56 = FACE_OUTER_BOUND ( 'NONE', #137, .T. ) ;
#57 = PERSON_AND_ORGANIZATION_ROLE ( 'design_owner' ) ;
#58 = DATE_AND_TIME ( #64, #143 ) ;
#59 = FACE_OUTER_BOUND ( 'NONE', #141, .T. ) ;
#60 = CC_DESIGN_APPROVAL ( #107, ( #195 ) ) ;
#61 = EDGE_LOOP ( 'NONE', ( #32 ) ) ;
#62 = CC_DESIGN_APPROVAL ( #132, ( #217 ) ) ;
#63 = SECURITY_CLASSIFICATION_LEVEL ( 'unclassified' ) ;
#64 = CALENDAR_DATE ( 2017, 28, 7 ) ;
#65 = APPLICATION_PROTOCOL_DEFINITION ( 'international standard', 'config_control_design', 1994, #39 ) ;
#66 = CIRCLE ( 'NONE', #54, 3.937007874015748100 ) ;
#67 = CARTESIAN_POINT ( 'NONE',  ( -7.007874015748031500, 0.0000000000000000000, -5.275590551181102800 ) ) ;
#68 = CARTESIAN_POINT ( 'NONE',  ( -7.637795275590551800, 0.0000000000000000000, 0.0000000000000000000 ) ) ;
#69 = PRODUCT_DEFINITION_FORMATION_WITH_SPECIFIED_SOURCE ( 'ANY', '', #1, .NOT_KNOWN. ) ;
#70 = LENGTH_MEASURE_WITH_UNIT ( LENGTH_MEASURE( 0.02539999999999999900 ), #119 );
#71 = CARTESIAN_POINT ( 'NONE',  ( -7.007874015748031500, 4.921259842519685200, -1.205321214392102400E-015 ) ) ;
#72 = EDGE_CURVE ( 'NONE', #151, #151, #146, .T. ) ;
#73 = ORIENTED_EDGE ( 'NONE', *, *, #93, .T. ) ;
#74 = CIRCLE ( 'NONE', #159, 3.220472440944881900 ) ;
#75 = COORDINATED_UNIVERSAL_TIME_OFFSET ( 5, 0, .BEHIND. ) ;
#76 = ORIENTED_EDGE ( 'NONE', *, *, #27, .F. ) ;
#77 = AXIS2_PLACEMENT_3D ( 'NONE', #199, #228, #161 ) ;
#78 = EDGE_LOOP ( 'NONE', ( #45 ) ) ;
#79 = CC_DESIGN_DATE_AND_TIME_ASSIGNMENT ( #230, #135, ( #217 ) ) ;
#80 = PERSON_AND_ORGANIZATION_ROLE ( 'creator' ) ;
#81 = FACE_OUTER_BOUND ( 'NONE', #138, .T. ) ;
#82 = EDGE_LOOP ( 'NONE', ( #133 ) ) ;
#83 =( NAMED_UNIT ( * ) SI_UNIT ( $, .STERADIAN. ) SOLID_ANGLE_UNIT ( ) );
#84 = CARTESIAN_POINT ( 'NONE',  ( -3.887824220410967900, 0.0000000000000000000, 0.0000000000000000000 ) ) ;
#85 = DIRECTION ( 'NONE',  ( -1.000000000000000000, 0.0000000000000000000, -0.0000000000000000000 ) ) ;
#86 = DIMENSIONAL_EXPONENTS ( 1.000000000000000000, 0.0000000000000000000, 0.0000000000000000000, 0.0000000000000000000, 0.0000000000000000000, 0.0000000000000000000, 0.0000000000000000000 ) ;
#87 = CARTESIAN_POINT ( 'NONE',  ( -3.887824220410967900, 5.925319972609149700, -5.275590551181102800 ) ) ;
#88 = DIRECTION ( 'NONE',  ( 0.0000000000000000000, 0.0000000000000000000, 1.000000000000000000 ) ) ;
#89 = COORDINATED_UNIVERSAL_TIME_OFFSET ( 5, 0, .BEHIND. ) ;
#90 = APPROVAL ( #98, 'UNSPECIFIED' ) ;
#91 = ORGANIZATION ( 'UNSPECIFIED', 'UNSPECIFIED', '' ) ;
#92 = FACE_OUTER_BOUND ( 'NONE', #61, .T. ) ;
#93 = EDGE_CURVE ( 'NONE', #191, #191, #74, .T. ) ;
#94 = ORIENTED_EDGE ( 'NONE', *, *, #160, .F. ) ;
#95 = AXIS2_PLACEMENT_3D ( 'NONE', #87, #85, #183 ) ;
#96 = APPROVAL_PERSON_ORGANIZATION ( #127, #90, #200 ) ;
#97 = EDGE_LOOP ( 'NONE', ( #37 ) ) ;
#98 = APPROVAL_STATUS ( 'not_yet_approved' ) ;
#99 = CARTESIAN_POINT ( 'NONE',  ( -7.007874015748033300, 0.0000000000000000000, 0.0000000000000000000 ) ) ;
#100 = CARTESIAN_POINT ( 'NONE',  ( 0.0000000000000000000, 0.0000000000000000000, 0.0000000000000000000 ) ) ;
#101 = ORIENTED_EDGE ( 'NONE', *, *, #160, .T. ) ;
#102 = DIRECTION ( 'NONE',  ( 1.000000000000000000, 0.0000000000000000000, 0.0000000000000000000 ) ) ;
#103 = DIRECTION ( 'NONE',  ( 1.000000000000000000, 0.0000000000000000000, 0.0000000000000000000 ) ) ;
#104 = CARTESIAN_POINT ( 'NONE',  ( -7.007874015748032400, 0.0000000000000000000, 0.0000000000000000000 ) ) ;
#105 = CC_DESIGN_DATE_AND_TIME_ASSIGNMENT ( #58, #222, ( #195 ) ) ;
#106 = CYLINDRICAL_SURFACE ( 'NONE', #232, 3.220472440944881900 ) ;
#107 = APPROVAL ( #4, 'UNSPECIFIED' ) ;
#108 = FACE_OUTER_BOUND ( 'NONE', #189, .T. ) ;
#109 = EDGE_CURVE ( 'NONE', #221, #221, #205, .T. ) ;
#110 = EDGE_CURVE ( 'NONE', #210, #210, #30, .T. ) ;
#111 = ADVANCED_BREP_SHAPE_REPRESENTATION ( '581138080', ( #18, #25 ), #131 ) ;
#112 = FACE_OUTER_BOUND ( 'NONE', #34, .T. ) ;
#113 = CC_DESIGN_PERSON_AND_ORGANIZATION_ASSIGNMENT ( #14, #180, ( #69 ) ) ;
#114 = APPROVAL_PERSON_ORGANIZATION ( #150, #132, #218 ) ;
#115 = APPROVAL_STATUS ( 'not_yet_approved' ) ;
#116 = PERSON_AND_ORGANIZATION_ROLE ( 'creator' ) ;
#117 = FACE_OUTER_BOUND ( 'NONE', #227, .T. ) ;
#118 = DIRECTION ( 'NONE',  ( 1.000000000000000000, 0.0000000000000000000, 0.0000000000000000000 ) ) ;
#119 =( LENGTH_UNIT ( ) NAMED_UNIT ( * ) SI_UNIT ( $, .METRE. ) );
#120 = CC_DESIGN_APPROVAL ( #90, ( #69 ) ) ;
#121 = CARTESIAN_POINT ( 'NONE',  ( -3.887824220410967900, 0.0000000000000000000, 0.0000000000000000000 ) ) ;
#122 = DIRECTION ( 'NONE',  ( 0.0000000000000000000, 0.0000000000000000000, -1.000000000000000000 ) ) ;
#123 = ADVANCED_FACE ( 'NONE', ( #52, #126 ), #19, .T. ) ;
#124 = COORDINATED_UNIVERSAL_TIME_OFFSET ( 5, 0, .BEHIND. ) ;
#125 = CARTESIAN_POINT ( 'NONE',  ( -8.267716535433070400, 4.248031496062992600, -1.040433272263263900E-015 ) ) ;
#126 = FACE_BOUND ( 'NONE', #82, .T. ) ;
#127 = PERSON_AND_ORGANIZATION ( #201, #91 ) ;
#128 = CALENDAR_DATE ( 2017, 28, 7 ) ;
#129 = APPROVAL_DATE_TIME ( #31, #107 ) ;
#130 = FACE_BOUND ( 'NONE', #78, .T. ) ;
#131 =( GEOMETRIC_REPRESENTATION_CONTEXT ( 3 ) GLOBAL_UNCERTAINTY_ASSIGNED_CONTEXT ( ( #49 ) ) GLOBAL_UNIT_ASSIGNED_CONTEXT ( ( #223, #203, #83 ) ) REPRESENTATION_CONTEXT ( 'NONE', 'WORKASPACE' ) );
#132 = APPROVAL ( #115, 'UNSPECIFIED' ) ;
#133 = ORIENTED_EDGE ( 'NONE', *, *, #110, .F. ) ;
#134 = AXIS2_PLACEMENT_3D ( 'NONE', #198, #53, #13 ) ;
#135 = DATE_TIME_ROLE ( 'classification_date' ) ;
#136 = EDGE_LOOP ( 'NONE', ( #76 ) ) ;
#137 = EDGE_LOOP ( 'NONE', ( #94 ) ) ;
#138 = EDGE_LOOP ( 'NONE', ( #24 ) ) ;
#139 = MECHANICAL_CONTEXT ( 'NONE', #39, 'mechanical' ) ;
#140 = DIRECTION ( 'NONE',  ( 1.000000000000000000, 0.0000000000000000000, 0.0000000000000000000 ) ) ;
#141 = EDGE_LOOP ( 'NONE', ( #193 ) ) ;
#142 = PLANE ( 'NONE',  #12 ) ;
#143 = LOCAL_TIME ( 15, 24, 2.000000000000000000, #89 ) ;
#144 = VERTEX_POINT ( 'NONE', #206 ) ;
#145 = AXIS2_PLACEMENT_3D ( 'NONE', #84, #184, #169 ) ;
#146 = CIRCLE ( 'NONE', #145, 3.220472440944881900 ) ;
#147 = ORIENTED_EDGE ( 'NONE', *, *, #93, .F. ) ;
#148 = PRODUCT_RELATED_PRODUCT_CATEGORY ( 'detail', '', ( #1 ) ) ;
#149 = ADVANCED_FACE ( 'NONE', ( #188, #50 ), #142, .T. ) ;
#150 = PERSON_AND_ORGANIZATION ( #201, #91 ) ;
#151 = VERTEX_POINT ( 'NONE', #182 ) ;
#152 = ORIENTED_EDGE ( 'NONE', *, *, #15, .F. ) ;
#153 = ADVANCED_FACE ( 'NONE', ( #56, #16 ), #215, .T. ) ;
#154 = DIRECTION ( 'NONE',  ( 0.0000000000000000000, 0.0000000000000000000, -1.000000000000000000 ) ) ;
#155 = DIRECTION ( 'NONE',  ( 0.0000000000000000000, 0.0000000000000000000, 1.000000000000000000 ) ) ;
#156 = FACE_BOUND ( 'NONE', #35, .T. ) ;
#157 = CARTESIAN_POINT ( 'NONE',  ( -4.133858267716535200, 0.0000000000000000000, 0.0000000000000000000 ) ) ;
#158 = DIRECTION ( 'NONE',  ( 1.000000000000000000, 0.0000000000000000000, 0.0000000000000000000 ) ) ;
#159 = AXIS2_PLACEMENT_3D ( 'NONE', #225, #166, #154 ) ;
#160 = EDGE_CURVE ( 'NONE', #8, #8, #66, .T. ) ;
#161 = DIRECTION ( 'NONE',  ( 0.0000000000000000000, 0.0000000000000000000, -1.000000000000000000 ) ) ;
#162 = AXIS2_PLACEMENT_3D ( 'NONE', #99, #46, #26 ) ;
#163 = ORIENTED_EDGE ( 'NONE', *, *, #109, .F. ) ;
#164 = APPROVAL_DATE_TIME ( #36, #90 ) ;
#165 = ADVANCED_FACE ( 'NONE', ( #108, #130 ), #10, .F. ) ;
#166 = DIRECTION ( 'NONE',  ( 1.000000000000000000, 0.0000000000000000000, 0.0000000000000000000 ) ) ;
#167 = CARTESIAN_POINT ( 'NONE',  ( -5.511811023622048100, 0.0000000000000000000, -3.937007874015748100 ) ) ;
#168 = APPROVAL_PERSON_ORGANIZATION ( #204, #107, #177 ) ;
#169 = DIRECTION ( 'NONE',  ( 0.0000000000000000000, 0.0000000000000000000, 1.000000000000000000 ) ) ;
#170 = DIRECTION ( 'NONE',  ( 0.0000000000000000000, 0.0000000000000000000, 1.000000000000000000 ) ) ;
#171 = PLANE ( 'NONE',  #174 ) ;
#172 = AXIS2_PLACEMENT_3D ( 'NONE', #211, #187, #7 ) ;
#173 = PRODUCT_DEFINITION_SHAPE ( 'NONE', 'NONE',  #195 ) ;
#174 = AXIS2_PLACEMENT_3D ( 'NONE', #125, #186, #170 ) ;
#175 = ADVANCED_FACE ( 'NONE', ( #112, #59 ), #194, .T. ) ;
#176 = PERSON_AND_ORGANIZATION ( #201, #91 ) ;
#177 = APPROVAL_ROLE ( '' ) ;
#178 = ADVANCED_FACE ( 'NONE', ( #81, #117 ), #106, .F. ) ;
#179 = CIRCLE ( 'NONE', #190, 4.566929133858267600 ) ;
#180 = PERSON_AND_ORGANIZATION_ROLE ( 'design_supplier' ) ;
#181 = CC_DESIGN_PERSON_AND_ORGANIZATION_ASSIGNMENT ( #176, #80, ( #69 ) ) ;
#182 = CARTESIAN_POINT ( 'NONE',  ( -3.887824220410967900, 0.0000000000000000000, 3.220472440944881900 ) ) ;
#183 = DIRECTION ( 'NONE',  ( -0.0000000000000000000, 0.0000000000000000000, 1.000000000000000000 ) ) ;
#184 = DIRECTION ( 'NONE',  ( 1.000000000000000000, 0.0000000000000000000, 0.0000000000000000000 ) ) ;
#185 = AXIS2_PLACEMENT_3D ( 'NONE', #226, #103, #122 ) ;
#186 = DIRECTION ( 'NONE',  ( -1.000000000000000000, 0.0000000000000000000, 0.0000000000000000000 ) ) ;
#187 = DIRECTION ( 'NONE',  ( 1.000000000000000000, 0.0000000000000000000, 0.0000000000000000000 ) ) ;
#188 = FACE_BOUND ( 'NONE', #136, .T. ) ;
#189 = EDGE_LOOP ( 'NONE', ( #101 ) ) ;
#190 = AXIS2_PLACEMENT_3D ( 'NONE', #104, #209, #88 ) ;
#191 = VERTEX_POINT ( 'NONE', #9 ) ;
#192 = PERSON_AND_ORGANIZATION ( #201, #91 ) ;
#193 = ORIENTED_EDGE ( 'NONE', *, *, #109, .T. ) ;
#194 = CYLINDRICAL_SURFACE ( 'NONE', #48, 5.275590551181102800 ) ;
#195 = PRODUCT_DEFINITION ( 'UNKNOWN', '', #69, #3 ) ;
#196 = APPLICATION_PROTOCOL_DEFINITION ( 'international standard', 'config_control_design', 1994, #33 ) ;
#197 = PERSON_AND_ORGANIZATION ( #201, #91 ) ;
#198 = CARTESIAN_POINT ( 'NONE',  ( -8.267716535433070400, 0.0000000000000000000, 0.0000000000000000000 ) ) ;
#199 = CARTESIAN_POINT ( 'NONE',  ( -7.007874015748031500, 0.0000000000000000000, 0.0000000000000000000 ) ) ;
#200 = APPROVAL_ROLE ( '' ) ;
#201 = PERSON ( 'UNSPECIFIED', 'UNSPECIFIED', 'UNSPECIFIED', ('UNSPECIFIED'), ('UNSPECIFIED'), ('UNSPECIFIED') ) ;
#202 = COORDINATED_UNIVERSAL_TIME_OFFSET ( 5, 0, .BEHIND. ) ;
#203 =( NAMED_UNIT ( * ) PLANE_ANGLE_UNIT ( ) SI_UNIT ( $, .RADIAN. ) );
#204 = PERSON_AND_ORGANIZATION ( #201, #91 ) ;
#205 = CIRCLE ( 'NONE', #77, 5.275590551181102800 ) ;
#206 = CARTESIAN_POINT ( 'NONE',  ( -8.267716535433070400, 0.0000000000000000000, -5.275590551181102800 ) ) ;
#207 = DIRECTION ( 'NONE',  ( 0.0000000000000000000, 0.0000000000000000000, 1.000000000000000000 ) ) ;
#208 = LOCAL_TIME ( 15, 24, 2.000000000000000000, #202 ) ;
#209 = DIRECTION ( 'NONE',  ( 1.000000000000000000, 0.0000000000000000000, -0.0000000000000000000 ) ) ;
#210 = VERTEX_POINT ( 'NONE', #167 ) ;
#211 = CARTESIAN_POINT ( 'NONE',  ( -5.511811023622048100, 0.0000000000000000000, 0.0000000000000000000 ) ) ;
#212 = LOCAL_TIME ( 15, 24, 2.000000000000000000, #75 ) ;
#213 = CALENDAR_DATE ( 2017, 28, 7 ) ;
#214 = CC_DESIGN_PERSON_AND_ORGANIZATION_ASSIGNMENT ( #229, #57, ( #1 ) ) ;
#215 = CYLINDRICAL_SURFACE ( 'NONE', #185, 3.937007874015748100 ) ;
#216 = EDGE_LOOP ( 'NONE', ( #6 ) ) ;
#217 = SECURITY_CLASSIFICATION ( '', '', #63 ) ;
#218 = APPROVAL_ROLE ( '' ) ;
#219 = DATE_AND_TIME ( #213, #44 ) ;
#220 = APPROVAL_DATE_TIME ( #219, #132 ) ;
#221 = VERTEX_POINT ( 'NONE', #67 ) ;
#222 = DATE_TIME_ROLE ( 'creation_date' ) ;
#223 =( CONVERSION_BASED_UNIT ( 'INCH', #70 ) LENGTH_UNIT ( ) NAMED_UNIT ( #86 ) );
#224 = CARTESIAN_POINT ( 'NONE',  ( -7.007874015748032400, 0.0000000000000000000, 4.566929133858267600 ) ) ;
#225 = CARTESIAN_POINT ( 'NONE',  ( -8.267716535433070400, 0.0000000000000000000, 0.0000000000000000000 ) ) ;
#226 = CARTESIAN_POINT ( 'NONE',  ( -2.755905511811024100, 0.0000000000000000000, 0.0000000000000000000 ) ) ;
#227 = EDGE_LOOP ( 'NONE', ( #147 ) ) ;
#228 = DIRECTION ( 'NONE',  ( -1.000000000000000000, -0.0000000000000000000, -0.0000000000000000000 ) ) ;
#229 = PERSON_AND_ORGANIZATION ( #201, #91 ) ;
#230 = DATE_AND_TIME ( #42, #208 ) ;
#231 = SHAPE_DEFINITION_REPRESENTATION ( #173, #111 ) ;
#232 = AXIS2_PLACEMENT_3D ( 'NONE', #157, #140, #43 ) ;
ENDSEC;
END-ISO-10303-21;
