ISO-10303-21;
HEADER;
FILE_DESCRIPTION (( 'STEP AP203' ),
    '1' );
FILE_NAME ('581136020.STEP',
    '2017-07-31T13:40:07',
    ( '' ),
    ( '' ),
    'SwSTEP 2.0',
    'SolidWorks 2017',
    '' );
FILE_SCHEMA (( 'CONFIG_CONTROL_DESIGN' ));
ENDSEC;

DATA;
#1 = CC_DESIGN_DATE_AND_TIME_ASSIGNMENT ( #85, #58, ( #185 ) ) ;
#2 = EDGE_CURVE ( 'NONE', #95, #95, #215, .T. ) ;
#3 = ORIENTED_EDGE ( 'NONE', *, *, #131, .T. ) ;
#4 = FACE_BOUND ( 'NONE', #156, .T. ) ;
#5 = CC_DESIGN_APPROVAL ( #235, ( #185 ) ) ;
#6 = LOCAL_TIME ( 9, 40, 7.000000000000000000, #191 ) ;
#7 = ORIENTED_EDGE ( 'NONE', *, *, #25, .F. ) ;
#8 = CARTESIAN_POINT ( 'NONE',  ( -1.968503937007871400, -6.392524305174376100E-015, -2.731847993664260800E-016 ) ) ;
#9 = DIRECTION ( 'NONE',  ( 1.000000000000000000, -1.665334536937735300E-016, 2.775557561562891800E-016 ) ) ;
#10 = DIRECTION ( 'NONE',  ( 3.469446951953607300E-016, 2.914335439641030000E-016, 1.000000000000000000 ) ) ;
#11 = FACE_OUTER_BOUND ( 'NONE', #213, .T. ) ;
#12 = DIRECTION ( 'NONE',  ( -3.469446951953607300E-016, -2.914335439641030000E-016, -1.000000000000000000 ) ) ;
#13 = CARTESIAN_POINT ( 'NONE',  ( 0.0000000000000000000, 0.0000000000000000000, 0.0000000000000000000 ) ) ;
#14 = APPROVAL_STATUS ( 'not_yet_approved' ) ;
#15 = DESIGN_CONTEXT ( 'detailed design', #167, 'design' ) ;
#16 = DIRECTION ( 'NONE',  ( -1.000000000000000000, 1.665334536937735300E-016, -2.775557561562891800E-016 ) ) ;
#17 = EDGE_CURVE ( 'NONE', #41, #41, #40, .T. ) ;
#18 = APPLICATION_CONTEXT ( 'configuration controlled 3d designs of mechanical parts and assemblies' ) ;
#19 = VERTEX_POINT ( 'NONE', #70 ) ;
#20 = CARTESIAN_POINT ( 'NONE',  ( -1.417322834645666300, 1.726377952755918700, -3.496765431890256900E-014 ) ) ;
#21 = AXIS2_PLACEMENT_3D ( 'NONE', #180, #53, #69 ) ;
#22 = CARTESIAN_POINT ( 'NONE',  ( 0.0000000000000000000, 0.0000000000000000000, 0.0000000000000000000 ) ) ;
#23 = EDGE_LOOP ( 'NONE', ( #3 ) ) ;
#24 = ORIENTED_EDGE ( 'NONE', *, *, #17, .F. ) ;
#25 = EDGE_CURVE ( 'NONE', #134, #134, #66, .T. ) ;
#26 = CARTESIAN_POINT ( 'NONE',  ( -0.9842519685039357000, -6.556435184794231700E-015, 0.0000000000000000000 ) ) ;
#27 = PLANE ( 'NONE',  #192 ) ;
#28 = ORIENTED_EDGE ( 'NONE', *, *, #25, .T. ) ;
#29 = FACE_OUTER_BOUND ( 'NONE', #147, .T. ) ;
#30 = APPROVAL_STATUS ( 'not_yet_approved' ) ;
#31 = CARTESIAN_POINT ( 'NONE',  ( -1.417322834645664800, -4.946939620846994400E-015, -1.976377952755909600 ) ) ;
#32 = DATE_AND_TIME ( #196, #118 ) ;
#33 = EDGE_CURVE ( 'NONE', #100, #100, #81, .T. ) ;
#34 =( LENGTH_UNIT ( ) NAMED_UNIT ( * ) SI_UNIT ( $, .METRE. ) );
#35 = PERSON_AND_ORGANIZATION_ROLE ( 'creator' ) ;
#36 = AXIS2_PLACEMENT_3D ( 'NONE', #55, #246, #227 ) ;
#37 = DIRECTION ( 'NONE',  ( 3.700743415417180300E-016, 2.914335439641028000E-016, 1.000000000000000000 ) ) ;
#38 = AXIS2_PLACEMENT_3D ( 'NONE', #199, #239, #102 ) ;
#39 = FACE_BOUND ( 'NONE', #148, .T. ) ;
#40 = CIRCLE ( 'NONE', #220, 1.240157480314963100 ) ;
#41 = VERTEX_POINT ( 'NONE', #105 ) ;
#42 = ORIENTED_EDGE ( 'NONE', *, *, #2, .T. ) ;
#43 = ADVANCED_BREP_SHAPE_REPRESENTATION ( '581136020', ( #149, #36 ), #83 ) ;
#44 = CONICAL_SURFACE ( 'NONE', #76, 1.476377952755908900, 0.3217505543966420700 ) ;
#45 = ORIENTED_EDGE ( 'NONE', *, *, #130, .F. ) ;
#46 = EDGE_LOOP ( 'NONE', ( #122 ) ) ;
#47 = ORIENTED_EDGE ( 'NONE', *, *, #130, .T. ) ;
#48 = DATE_AND_TIME ( #153, #63 ) ;
#49 = DIRECTION ( 'NONE',  ( -1.000000000000000000, 1.665334536937735300E-016, -2.775557561562891800E-016 ) ) ;
#50 = FACE_OUTER_BOUND ( 'NONE', #240, .T. ) ;
#51 = DIRECTION ( 'NONE',  ( -4.049938076210436100E-016, -2.914335439641028500E-016, -1.000000000000000000 ) ) ;
#52 = DIRECTION ( 'NONE',  ( -1.000000000000000000, 1.665334536937735300E-016, -2.775557561562891800E-016 ) ) ;
#53 = DIRECTION ( 'NONE',  ( 1.000000000000000000, -1.665334536937737000E-016, -3.469446951953606800E-016 ) ) ;
#54 = FACE_BOUND ( 'NONE', #179, .T. ) ;
#55 = CARTESIAN_POINT ( 'NONE',  ( 0.0000000000000000000, 0.0000000000000000000, 0.0000000000000000000 ) ) ;
#56 = VERTEX_POINT ( 'NONE', #222 ) ;
#57 =( NAMED_UNIT ( * ) PLANE_ANGLE_UNIT ( ) SI_UNIT ( $, .RADIAN. ) );
#58 = DATE_TIME_ROLE ( 'creation_date' ) ;
#59 = EDGE_CURVE ( 'NONE', #209, #209, #208, .T. ) ;
#60 = ORIENTED_EDGE ( 'NONE', *, *, #59, .T. ) ;
#61 = APPROVAL_DATE_TIME ( #170, #235 ) ;
#62 = DIRECTION ( 'NONE',  ( -1.000000000000000000, 1.665334536937728400E-016, -2.775557561562893300E-016 ) ) ;
#63 = LOCAL_TIME ( 9, 40, 7.000000000000000000, #186 ) ;
#64 = AXIS2_PLACEMENT_3D ( 'NONE', #101, #136, #152 ) ;
#65 = AXIS2_PLACEMENT_3D ( 'NONE', #92, #62, #207 ) ;
#66 = CIRCLE ( 'NONE', #98, 1.976377952755909600 ) ;
#67 = DIRECTION ( 'NONE',  ( 3.700743415417180300E-016, 2.914335439641028000E-016, 1.000000000000000000 ) ) ;
#68 = CYLINDRICAL_SURFACE ( 'NONE', #232, 1.011811023622049400 ) ;
#69 = DIRECTION ( 'NONE',  ( -3.469446951953607300E-016, -2.914335439641030000E-016, -1.000000000000000000 ) ) ;
#70 = CARTESIAN_POINT ( 'NONE',  ( -1.417322834645663400, -3.940690730860699700E-015, 1.476377952755908900 ) ) ;
#71 = PERSON_AND_ORGANIZATION ( #194, #169 ) ;
#72 = EDGE_LOOP ( 'NONE', ( #178 ) ) ;
#73 = ORIENTED_EDGE ( 'NONE', *, *, #2, .F. ) ;
#74 = FACE_OUTER_BOUND ( 'NONE', #108, .T. ) ;
#75 = PRODUCT ( '581136020', '581136020', '', ( #143 ) ) ;
#76 = AXIS2_PLACEMENT_3D ( 'NONE', #123, #52, #67 ) ;
#77 = CIRCLE ( 'NONE', #176, 1.476377952755908900 ) ;
#78 = PRODUCT_DEFINITION_FORMATION_WITH_SPECIFIED_SOURCE ( 'ANY', '', #75, .NOT_KNOWN. ) ;
#79 = FACE_OUTER_BOUND ( 'NONE', #23, .T. ) ;
#80 = VERTEX_POINT ( 'NONE', #204 ) ;
#81 = CIRCLE ( 'NONE', #64, 1.240157480314962000 ) ;
#82 = DIRECTION ( 'NONE',  ( -2.100635963253919500E-016, 0.0000000000000000000, 1.000000000000000000 ) ) ;
#83 =( GEOMETRIC_REPRESENTATION_CONTEXT ( 3 ) GLOBAL_UNCERTAINTY_ASSIGNED_CONTEXT ( ( #173 ) ) GLOBAL_UNIT_ASSIGNED_CONTEXT ( ( #161, #57, #182 ) ) REPRESENTATION_CONTEXT ( 'NONE', 'WORKASPACE' ) );
#84 = FACE_OUTER_BOUND ( 'NONE', #87, .T. ) ;
#85 = DATE_AND_TIME ( #238, #132 ) ;
#86 = DIRECTION ( 'NONE',  ( -1.000000000000000000, 1.665334536937735300E-016, -2.775557561562891800E-016 ) ) ;
#87 = EDGE_LOOP ( 'NONE', ( #73 ) ) ;
#88 = APPLICATION_PROTOCOL_DEFINITION ( 'international standard', 'config_control_design', 1994, #18 ) ;
#89 = CC_DESIGN_PERSON_AND_ORGANIZATION_ASSIGNMENT ( #91, #109, ( #75 ) ) ;
#90 = CIRCLE ( 'NONE', #65, 1.011811023622047200 ) ;
#91 = PERSON_AND_ORGANIZATION ( #194, #169 ) ;
#92 = CARTESIAN_POINT ( 'NONE',  ( -1.468503937007869200, -6.475791032021263700E-015, -1.344069212882807700E-016 ) ) ;
#93 = EDGE_LOOP ( 'NONE', ( #45 ) ) ;
#94 = DIRECTION ( 'NONE',  ( -4.146749344964471000E-016, -2.914335439641030000E-016, -1.000000000000000000 ) ) ;
#95 = VERTEX_POINT ( 'NONE', #139 ) ;
#96 = AXIS2_PLACEMENT_3D ( 'NONE', #200, #242, #157 ) ;
#97 = CALENDAR_DATE ( 2017, 31, 7 ) ;
#98 = AXIS2_PLACEMENT_3D ( 'NONE', #151, #49, #175 ) ;
#99 = PRODUCT_DEFINITION_SHAPE ( 'NONE', 'NONE',  #185 ) ;
#100 = VERTEX_POINT ( 'NONE', #221 ) ;
#101 = CARTESIAN_POINT ( 'NONE',  ( -0.7086614173228331600, -4.370956789862821100E-015, 0.0000000000000000000 ) ) ;
#102 = DIRECTION ( 'NONE',  ( -4.146749344964471000E-016, -2.914335439641030000E-016, -1.000000000000000000 ) ) ;
#103 = PLANE ( 'NONE',  #203 ) ;
#104 = CYLINDRICAL_SURFACE ( 'NONE', #96, 1.240157480314963100 ) ;
#105 = CARTESIAN_POINT ( 'NONE',  ( -4.302660590021214300E-016, -3.614234895617820200E-016, -1.240157480314963100 ) ) ;
#106 = SECURITY_CLASSIFICATION_LEVEL ( 'unclassified' ) ;
#107 = APPROVAL_PERSON_ORGANIZATION ( #128, #229, #165 ) ;
#108 = EDGE_LOOP ( 'NONE', ( #24 ) ) ;
#109 = PERSON_AND_ORGANIZATION_ROLE ( 'design_owner' ) ;
#110 = AXIS2_PLACEMENT_3D ( 'NONE', #234, #174, #94 ) ;
#111 = ADVANCED_FACE ( 'NONE', ( #79, #11 ), #68, .F. ) ;
#112 = CIRCLE ( 'NONE', #135, 1.300486158216860300 ) ;
#113 = CC_DESIGN_APPROVAL ( #230, ( #78 ) ) ;
#114 = EDGE_LOOP ( 'NONE', ( #164 ) ) ;
#115 = FACE_OUTER_BOUND ( 'NONE', #114, .T. ) ;
#116 = CALENDAR_DATE ( 2017, 31, 7 ) ;
#117 = DIRECTION ( 'NONE',  ( -3.469446951953607300E-016, -2.914335439641030000E-016, -1.000000000000000000 ) ) ;
#118 = LOCAL_TIME ( 9, 40, 7.000000000000000000, #125 ) ;
#119 = CARTESIAN_POINT ( 'NONE',  ( -1.968503937007871600, -6.392524305174376100E-015, -2.731847993664261700E-016 ) ) ;
#120 = FACE_BOUND ( 'NONE', #158, .T. ) ;
#121 = CYLINDRICAL_SURFACE ( 'NONE', #38, 1.976377952755909600 ) ;
#122 = ORIENTED_EDGE ( 'NONE', *, *, #33, .T. ) ;
#123 = CARTESIAN_POINT ( 'NONE',  ( -1.417322834645664100, -4.370956789862821100E-015, 0.0000000000000000000 ) ) ;
#124 = DATE_TIME_ROLE ( 'classification_date' ) ;
#125 = COORDINATED_UNIVERSAL_TIME_OFFSET ( 5, 0, .BEHIND. ) ;
#126 = CARTESIAN_POINT ( 'NONE',  ( -1.417322834645664100, -4.370956789862821100E-015, 0.0000000000000000000 ) ) ;
#127 = FACE_OUTER_BOUND ( 'NONE', #241, .T. ) ;
#128 = PERSON_AND_ORGANIZATION ( #194, #169 ) ;
#129 = FACE_OUTER_BOUND ( 'NONE', #72, .T. ) ;
#130 = EDGE_CURVE ( 'NONE', #19, #19, #77, .T. ) ;
#131 = EDGE_CURVE ( 'NONE', #80, #80, #90, .T. ) ;
#132 = LOCAL_TIME ( 9, 40, 7.000000000000000000, #223 ) ;
#133 = AXIS2_PLACEMENT_3D ( 'NONE', #13, #86, #12 ) ;
#134 = VERTEX_POINT ( 'NONE', #31 ) ;
#135 = AXIS2_PLACEMENT_3D ( 'NONE', #119, #9, #137 ) ;
#136 = DIRECTION ( 'NONE',  ( -1.000000000000000000, 1.665334536937735300E-016, -2.775557561562891800E-016 ) ) ;
#137 = DIRECTION ( 'NONE',  ( -2.100635963253919300E-016, 0.0000000000000000000, 1.000000000000000000 ) ) ;
#138 = PLANE ( 'NONE',  #21 ) ;
#139 = CARTESIAN_POINT ( 'NONE',  ( -1.968503937007870100, -5.759828309841732300E-016, -1.976377952755909600 ) ) ;
#140 = APPROVAL_ROLE ( '' ) ;
#141 = PERSON_AND_ORGANIZATION_ROLE ( 'design_supplier' ) ;
#142 = PERSON_AND_ORGANIZATION ( #194, #169 ) ;
#143 = MECHANICAL_CONTEXT ( 'NONE', #18, 'mechanical' ) ;
#144 = CC_DESIGN_PERSON_AND_ORGANIZATION_ASSIGNMENT ( #160, #141, ( #78 ) ) ;
#145 = ADVANCED_FACE ( 'NONE', ( #193, #189 ), #44, .T. ) ;
#146 = LENGTH_MEASURE_WITH_UNIT ( LENGTH_MEASURE( 0.02539999999999999900 ), #34 );
#147 = EDGE_LOOP ( 'NONE', ( #7 ) ) ;
#148 = EDGE_LOOP ( 'NONE', ( #244 ) ) ;
#149 = MANIFOLD_SOLID_BREP ( '1', #187 ) ;
#150 = CC_DESIGN_PERSON_AND_ORGANIZATION_ASSIGNMENT ( #162, #35, ( #185 ) ) ;
#151 = CARTESIAN_POINT ( 'NONE',  ( -1.417322834645664100, -4.370956789862821100E-015, 0.0000000000000000000 ) ) ;
#152 = DIRECTION ( 'NONE',  ( 3.304235192336772100E-016, 1.000000000000000000, 1.249000902703300100E-016 ) ) ;
#153 = CALENDAR_DATE ( 2017, 31, 7 ) ;
#154 = CARTESIAN_POINT ( 'NONE',  ( -1.968503937007871400, 1.494094488188971500, -1.748382715945128500E-014 ) ) ;
#155 = CC_DESIGN_PERSON_AND_ORGANIZATION_ASSIGNMENT ( #211, #159, ( #172 ) ) ;
#156 = EDGE_LOOP ( 'NONE', ( #47 ) ) ;
#157 = DIRECTION ( 'NONE',  ( -3.304235192336769100E-016, -2.914335439641030000E-016, -1.000000000000000000 ) ) ;
#158 = EDGE_LOOP ( 'NONE', ( #60 ) ) ;
#159 = PERSON_AND_ORGANIZATION_ROLE ( 'classification_officer' ) ;
#160 = PERSON_AND_ORGANIZATION ( #194, #169 ) ;
#161 =( CONVERSION_BASED_UNIT ( 'INCH', #146 ) LENGTH_UNIT ( ) NAMED_UNIT ( #225 ) );
#162 = PERSON_AND_ORGANIZATION ( #194, #169 ) ;
#163 = ADVANCED_FACE ( 'NONE', ( #4, #29 ), #27, .T. ) ;
#164 = ORIENTED_EDGE ( 'NONE', *, *, #166, .F. ) ;
#165 = APPROVAL_ROLE ( '' ) ;
#166 = EDGE_CURVE ( 'NONE', #56, #56, #112, .T. ) ;
#167 = APPLICATION_CONTEXT ( 'configuration controlled 3d designs of mechanical parts and assemblies' ) ;
#168 = PRODUCT_RELATED_PRODUCT_CATEGORY ( 'detail', '', ( #75 ) ) ;
#169 = ORGANIZATION ( 'UNSPECIFIED', 'UNSPECIFIED', '' ) ;
#170 = DATE_AND_TIME ( #116, #6 ) ;
#171 = AXIS2_PLACEMENT_3D ( 'NONE', #8, #177, #82 ) ;
#172 = SECURITY_CLASSIFICATION ( '', '', #106 ) ;
#173 = UNCERTAINTY_MEASURE_WITH_UNIT (LENGTH_MEASURE( 1.000000000000000100E-005 ), #161, 'distance_accuracy_value', 'NONE');
#174 = DIRECTION ( 'NONE',  ( -1.000000000000000000, 1.665334536937735300E-016, -2.775557561562891800E-016 ) ) ;
#175 = DIRECTION ( 'NONE',  ( -4.146749344964471000E-016, -2.914335439641029500E-016, -1.000000000000000000 ) ) ;
#176 = AXIS2_PLACEMENT_3D ( 'NONE', #126, #16, #37 ) ;
#177 = DIRECTION ( 'NONE',  ( -1.000000000000000000, 1.665334536937728400E-016, -2.775557561562893300E-016 ) ) ;
#178 = ORIENTED_EDGE ( 'NONE', *, *, #33, .F. ) ;
#179 = EDGE_LOOP ( 'NONE', ( #228 ) ) ;
#180 = CARTESIAN_POINT ( 'NONE',  ( 2.185478394931410600E-015, 1.125984251968504600, -1.748382715945128500E-014 ) ) ;
#181 = CARTESIAN_POINT ( 'NONE',  ( -3.510424671858578700E-016, -2.948756724361206200E-016, -1.011811023622049400 ) ) ;
#182 =( NAMED_UNIT ( * ) SI_UNIT ( $, .STERADIAN. ) SOLID_ANGLE_UNIT ( ) );
#183 = ORIENTED_EDGE ( 'NONE', *, *, #59, .F. ) ;
#184 = ADVANCED_FACE ( 'NONE', ( #54, #115 ), #231, .F. ) ;
#185 = PRODUCT_DEFINITION ( 'UNKNOWN', '', #78, #15 ) ;
#186 = COORDINATED_UNIVERSAL_TIME_OFFSET ( 5, 0, .BEHIND. ) ;
#187 = CLOSED_SHELL ( 'NONE', ( #206, #245, #111, #163, #248, #145, #252, #184 ) ) ;
#188 = CC_DESIGN_DATE_AND_TIME_ASSIGNMENT ( #48, #124, ( #172 ) ) ;
#189 = FACE_BOUND ( 'NONE', #46, .T. ) ;
#190 = APPROVAL_PERSON_ORGANIZATION ( #71, #230, #224 ) ;
#191 = COORDINATED_UNIVERSAL_TIME_OFFSET ( 5, 0, .BEHIND. ) ;
#192 = AXIS2_PLACEMENT_3D ( 'NONE', #20, #210, #117 ) ;
#193 = FACE_OUTER_BOUND ( 'NONE', #93, .T. ) ;
#194 = PERSON ( 'UNSPECIFIED', 'UNSPECIFIED', 'UNSPECIFIED', ('UNSPECIFIED'), ('UNSPECIFIED'), ('UNSPECIFIED') ) ;
#195 = CC_DESIGN_SECURITY_CLASSIFICATION ( #172, ( #78 ) ) ;
#196 = CALENDAR_DATE ( 2017, 31, 7 ) ;
#197 = APPROVAL_PERSON_ORGANIZATION ( #142, #235, #140 ) ;
#198 = DIRECTION ( 'NONE',  ( -3.469446951953607300E-016, -2.914335439641030000E-016, -1.000000000000000000 ) ) ;
#199 = CARTESIAN_POINT ( 'NONE',  ( -1.692913385826773300, 0.0000000000000000000, 0.0000000000000000000 ) ) ;
#200 = CARTESIAN_POINT ( 'NONE',  ( -0.3543307086614165800, 0.0000000000000000000, 0.0000000000000000000 ) ) ;
#201 = FACE_OUTER_BOUND ( 'NONE', #218, .T. ) ;
#202 = ORIENTED_EDGE ( 'NONE', *, *, #17, .T. ) ;
#203 = AXIS2_PLACEMENT_3D ( 'NONE', #154, #237, #10 ) ;
#204 = CARTESIAN_POINT ( 'NONE',  ( -1.468503937007869400, -6.475791032021263700E-015, 1.011811023622047200 ) ) ;
#205 = APPROVAL_STATUS ( 'not_yet_approved' ) ;
#206 = ADVANCED_FACE ( 'NONE', ( #39, #201 ), #103, .T. ) ;
#207 = DIRECTION ( 'NONE',  ( -2.699958717473630000E-016, 0.0000000000000000000, 1.000000000000000000 ) ) ;
#208 = CIRCLE ( 'NONE', #133, 1.011811023622049400 ) ;
#209 = VERTEX_POINT ( 'NONE', #181 ) ;
#210 = DIRECTION ( 'NONE',  ( 1.000000000000000000, -1.665334536937737000E-016, -3.469446951953606800E-016 ) ) ;
#211 = PERSON_AND_ORGANIZATION ( #194, #169 ) ;
#212 = LOCAL_TIME ( 9, 40, 7.000000000000000000, #243 ) ;
#213 = EDGE_LOOP ( 'NONE', ( #183 ) ) ;
#214 = CC_DESIGN_APPROVAL ( #229, ( #172 ) ) ;
#215 = CIRCLE ( 'NONE', #110, 1.976377952755909600 ) ;
#216 = DIRECTION ( 'NONE',  ( 1.000000000000000000, -1.665334536937735300E-016, 2.775557561562891800E-016 ) ) ;
#217 = APPROVAL_DATE_TIME ( #236, #229 ) ;
#218 = EDGE_LOOP ( 'NONE', ( #42 ) ) ;
#219 = DIRECTION ( 'NONE',  ( 1.000000000000000000, -1.665334536937735300E-016, 2.775557561562891800E-016 ) ) ;
#220 = AXIS2_PLACEMENT_3D ( 'NONE', #22, #216, #198 ) ;
#221 = CARTESIAN_POINT ( 'NONE',  ( -0.7086614173228327200, 1.240157480314957800, 1.548957812407637800E-016 ) ) ;
#222 = CARTESIAN_POINT ( 'NONE',  ( -1.968503937007872100, -6.392524305174376100E-015, 1.300486158216860100 ) ) ;
#223 = COORDINATED_UNIVERSAL_TIME_OFFSET ( 5, 0, .BEHIND. ) ;
#224 = APPROVAL_ROLE ( '' ) ;
#225 = DIMENSIONAL_EXPONENTS ( 1.000000000000000000, 0.0000000000000000000, 0.0000000000000000000, 0.0000000000000000000, 0.0000000000000000000, 0.0000000000000000000, 0.0000000000000000000 ) ;
#226 = PERSON_AND_ORGANIZATION ( #194, #169 ) ;
#227 = DIRECTION ( 'NONE',  ( 1.000000000000000000, 0.0000000000000000000, 0.0000000000000000000 ) ) ;
#228 = ORIENTED_EDGE ( 'NONE', *, *, #131, .F. ) ;
#229 = APPROVAL ( #30, 'UNSPECIFIED' ) ;
#230 = APPROVAL ( #205, 'UNSPECIFIED' ) ;
#231 = CONICAL_SURFACE ( 'NONE', #171, 1.300486158216860100, 0.5235987755982967100 ) ;
#232 = AXIS2_PLACEMENT_3D ( 'NONE', #26, #219, #51 ) ;
#233 = CC_DESIGN_PERSON_AND_ORGANIZATION_ASSIGNMENT ( #226, #249, ( #78 ) ) ;
#234 = CARTESIAN_POINT ( 'NONE',  ( -1.968503937007869200, 0.0000000000000000000, 0.0000000000000000000 ) ) ;
#235 = APPROVAL ( #14, 'UNSPECIFIED' ) ;
#236 = DATE_AND_TIME ( #97, #212 ) ;
#237 = DIRECTION ( 'NONE',  ( -1.000000000000000000, 1.665334536937737000E-016, 3.469446951953606800E-016 ) ) ;
#238 = CALENDAR_DATE ( 2017, 31, 7 ) ;
#239 = DIRECTION ( 'NONE',  ( 1.000000000000000000, -1.665334536937735300E-016, 2.775557561562891800E-016 ) ) ;
#240 = EDGE_LOOP ( 'NONE', ( #28 ) ) ;
#241 = EDGE_LOOP ( 'NONE', ( #202 ) ) ;
#242 = DIRECTION ( 'NONE',  ( 1.000000000000000000, -1.665334536937735300E-016, 2.775557561562891800E-016 ) ) ;
#243 = COORDINATED_UNIVERSAL_TIME_OFFSET ( 5, 0, .BEHIND. ) ;
#244 = ORIENTED_EDGE ( 'NONE', *, *, #166, .T. ) ;
#245 = ADVANCED_FACE ( 'NONE', ( #84, #50 ), #121, .T. ) ;
#246 = DIRECTION ( 'NONE',  ( 0.0000000000000000000, 0.0000000000000000000, 1.000000000000000000 ) ) ;
#247 = APPLICATION_PROTOCOL_DEFINITION ( 'international standard', 'config_control_design', 1994, #167 ) ;
#248 = ADVANCED_FACE ( 'NONE', ( #120, #127 ), #138, .T. ) ;
#249 = PERSON_AND_ORGANIZATION_ROLE ( 'creator' ) ;
#250 = APPROVAL_DATE_TIME ( #32, #230 ) ;
#251 = SHAPE_DEFINITION_REPRESENTATION ( #99, #43 ) ;
#252 = ADVANCED_FACE ( 'NONE', ( #129, #74 ), #104, .T. ) ;
ENDSEC;
END-ISO-10303-21;
