ISO-10303-21;
HEADER;
FILE_DESCRIPTION (( 'STEP AP203' ),
    '1' );
FILE_NAME ('581136080.STEP',
    '2017-07-31T14:06:40',
    ( '' ),
    ( '' ),
    'SwSTEP 2.0',
    'SolidWorks 2017',
    '' );
FILE_SCHEMA (( 'CONFIG_CONTROL_DESIGN' ));
ENDSEC;

DATA;
#1 = ORIENTED_EDGE ( 'NONE', *, *, #81, .F. ) ;
#2 = FACE_OUTER_BOUND ( 'NONE', #82, .T. ) ;
#3 = DIRECTION ( 'NONE',  ( -6.213934839319906000E-016, 3.608224830031758300E-016, -1.000000000000000000 ) ) ;
#4 = EDGE_CURVE ( 'NONE', #11, #11, #68, .T. ) ;
#5 = AXIS2_PLACEMENT_3D ( 'NONE', #31, #141, #145 ) ;
#6 = LOCAL_TIME ( 10, 6, 40.00000000000000000, #117 ) ;
#7 = ADVANCED_FACE ( 'NONE', ( #80, #186 ), #150, .F. ) ;
#8 = LOCAL_TIME ( 10, 6, 40.00000000000000000, #76 ) ;
#9 = ORIENTED_EDGE ( 'NONE', *, *, #171, .T. ) ;
#10 = EDGE_LOOP ( 'NONE', ( #239 ) ) ;
#11 = VERTEX_POINT ( 'NONE', #179 ) ;
#12 = PERSON_AND_ORGANIZATION_ROLE ( 'creator' ) ;
#13 = PERSON_AND_ORGANIZATION ( #40, #61 ) ;
#14 = FACE_OUTER_BOUND ( 'NONE', #190, .T. ) ;
#15 = PERSON_AND_ORGANIZATION ( #40, #61 ) ;
#16 = CALENDAR_DATE ( 2017, 31, 7 ) ;
#17 = CARTESIAN_POINT ( 'NONE',  ( -2.321159121835048000E-015, 1.420560956705416900E-015, -3.937007874015748100 ) ) ;
#18 = PRODUCT_DEFINITION_FORMATION_WITH_SPECIFIED_SOURCE ( 'ANY', '', #229, .NOT_KNOWN. ) ;
#19 = CARTESIAN_POINT ( 'NONE',  ( -4.527559055118115500, 1.809302926203841500E-015, -5.275590551181102800 ) ) ;
#20 = UNCERTAINTY_MEASURE_WITH_UNIT (LENGTH_MEASURE( 1.000000000000000100E-005 ), #51, 'distance_accuracy_value', 'NONE');
#21 = VERTEX_POINT ( 'NONE', #19 ) ;
#22 = CIRCLE ( 'NONE', #162, 4.566929133858268500 ) ;
#23 = CARTESIAN_POINT ( 'NONE',  ( -1.574803149606295100, 3.937007874015757500, -2.934004745195418100E-015 ) ) ;
#24 = APPROVAL ( #104, 'UNSPECIFIED' ) ;
#25 = DIRECTION ( 'NONE',  ( 1.000000000000000000, 3.445426215491416700E-016, -5.895744169461020300E-016 ) ) ;
#26 = DATE_AND_TIME ( #16, #8 ) ;
#27 = EDGE_LOOP ( 'NONE', ( #230 ) ) ;
#28 = APPROVAL_ROLE ( '' ) ;
#29 =( NAMED_UNIT ( * ) SI_UNIT ( $, .STERADIAN. ) SOLID_ANGLE_UNIT ( ) );
#30 = CC_DESIGN_DATE_AND_TIME_ASSIGNMENT ( #66, #183, ( #34 ) ) ;
#31 = CARTESIAN_POINT ( 'NONE',  ( 6.630932679581462100E-015, 3.578740157480419200, -1.748382715945128500E-014 ) ) ;
#32 = ORIENTED_EDGE ( 'NONE', *, *, #81, .T. ) ;
#33 = DIRECTION ( 'NONE',  ( -6.213934839319906000E-016, 3.608224830031758300E-016, -1.000000000000000000 ) ) ;
#34 = PRODUCT_DEFINITION ( 'UNKNOWN', '', #18, #203 ) ;
#35 = MANIFOLD_SOLID_BREP ( '1', #89 ) ;
#36 = FACE_BOUND ( 'NONE', #223, .T. ) ;
#37 = DIRECTION ( 'NONE',  ( -6.213934839319906000E-016, 3.608224830031758300E-016, -1.000000000000000000 ) ) ;
#38 = ADVANCED_FACE ( 'NONE', ( #53, #146 ), #132, .F. ) ;
#39 = DATE_AND_TIME ( #178, #191 ) ;
#40 = PERSON ( 'UNSPECIFIED', 'UNSPECIFIED', 'UNSPECIFIED', ('UNSPECIFIED'), ('UNSPECIFIED'), ('UNSPECIFIED') ) ;
#41 = ADVANCED_BREP_SHAPE_REPRESENTATION ( '581136080', ( #35, #60 ), #79 ) ;
#42 = ORIENTED_EDGE ( 'NONE', *, *, #4, .F. ) ;
#43 = SHAPE_DEFINITION_REPRESENTATION ( #136, #41 ) ;
#44 = AXIS2_PLACEMENT_3D ( 'NONE', #138, #46, #33 ) ;
#45 = DIRECTION ( 'NONE',  ( 1.000000000000000000, 3.445426215491412800E-016, 5.895744169461005500E-016 ) ) ;
#46 = DIRECTION ( 'NONE',  ( 1.000000000000000000, 3.445426215491412800E-016, 5.895744169461005500E-016 ) ) ;
#47 = CALENDAR_DATE ( 2017, 31, 7 ) ;
#48 = AXIS2_PLACEMENT_3D ( 'NONE', #213, #56, #232 ) ;
#49 = CONICAL_SURFACE ( 'NONE', #54, 4.566929133858268500, 0.3562196553961500800 ) ;
#50 = EDGE_LOOP ( 'NONE', ( #9 ) ) ;
#51 =( CONVERSION_BASED_UNIT ( 'INCH', #69 ) LENGTH_UNIT ( ) NAMED_UNIT ( #248 ) );
#52 = DIRECTION ( 'NONE',  ( -5.898059818321144100E-016, 3.608224830031758800E-016, -1.000000000000000000 ) ) ;
#53 = FACE_BOUND ( 'NONE', #188, .T. ) ;
#54 = AXIS2_PLACEMENT_3D ( 'NONE', #207, #98, #77 ) ;
#55 = ORIENTED_EDGE ( 'NONE', *, *, #59, .F. ) ;
#56 = DIRECTION ( 'NONE',  ( -1.000000000000000000, -3.445426215491412800E-016, -5.895744169461005500E-016 ) ) ;
#57 = EDGE_LOOP ( 'NONE', ( #32 ) ) ;
#58 = CARTESIAN_POINT ( 'NONE',  ( -3.267716535433070400, -6.802301504224011800E-017, 3.401150752112005900E-017 ) ) ;
#59 = EDGE_CURVE ( 'NONE', #238, #238, #110, .T. ) ;
#60 = AXIS2_PLACEMENT_3D ( 'NONE', #96, #84, #140 ) ;
#61 = ORGANIZATION ( 'UNSPECIFIED', 'UNSPECIFIED', '' ) ;
#62 = APPROVAL_PERSON_ORGANIZATION ( #170, #221, #87 ) ;
#63 = ORIENTED_EDGE ( 'NONE', *, *, #177, .F. ) ;
#64 = AXIS2_PLACEMENT_3D ( 'NONE', #149, #25, #74 ) ;
#65 = CC_DESIGN_APPROVAL ( #221, ( #34 ) ) ;
#66 = DATE_AND_TIME ( #169, #160 ) ;
#67 = APPROVAL_STATUS ( 'not_yet_approved' ) ;
#68 = CIRCLE ( 'NONE', #97, 5.275590551181102800 ) ;
#69 = LENGTH_MEASURE_WITH_UNIT ( LENGTH_MEASURE( 0.02539999999999999900 ), #234 );
#70 = PLANE ( 'NONE',  #64 ) ;
#71 = CC_DESIGN_PERSON_AND_ORGANIZATION_ASSIGNMENT ( #216, #135, ( #18 ) ) ;
#72 = DATE_AND_TIME ( #114, #219 ) ;
#73 = EDGE_LOOP ( 'NONE', ( #176 ) ) ;
#74 = DIRECTION ( 'NONE',  ( -5.895744169461021300E-016, 3.608224830031758800E-016, -1.000000000000000000 ) ) ;
#75 = VERTEX_POINT ( 'NONE', #23 ) ;
#76 = COORDINATED_UNIVERSAL_TIME_OFFSET ( 5, 0, .BEHIND. ) ;
#77 = DIRECTION ( 'NONE',  ( 5.981805089575196200E-016, -3.608224830031758800E-016, 1.000000000000000000 ) ) ;
#78 = ORIENTED_EDGE ( 'NONE', *, *, #177, .T. ) ;
#79 =( GEOMETRIC_REPRESENTATION_CONTEXT ( 3 ) GLOBAL_UNCERTAINTY_ASSIGNED_CONTEXT ( ( #20 ) ) GLOBAL_UNIT_ASSIGNED_CONTEXT ( ( #51, #93, #29 ) ) REPRESENTATION_CONTEXT ( 'NONE', 'WORKASPACE' ) );
#80 = FACE_OUTER_BOUND ( 'NONE', #57, .T. ) ;
#81 = EDGE_CURVE ( 'NONE', #134, #134, #122, .T. ) ;
#82 = EDGE_LOOP ( 'NONE', ( #194 ) ) ;
#83 = VERTEX_POINT ( 'NONE', #217 ) ;
#84 = DIRECTION ( 'NONE',  ( 0.0000000000000000000, 0.0000000000000000000, 1.000000000000000000 ) ) ;
#85 = CC_DESIGN_APPROVAL ( #24, ( #202 ) ) ;
#86 = CC_DESIGN_PERSON_AND_ORGANIZATION_ASSIGNMENT ( #124, #192, ( #229 ) ) ;
#87 = APPROVAL_ROLE ( '' ) ;
#88 = APPLICATION_PROTOCOL_DEFINITION ( 'international standard', 'config_control_design', 1994, #246 ) ;
#89 = CLOSED_SHELL ( 'NONE', ( #129, #247, #7, #200, #151, #123, #111, #38 ) ) ;
#90 = DIRECTION ( 'NONE',  ( -5.895744169461020300E-016, 3.608224830031758300E-016, -1.000000000000000000 ) ) ;
#91 = EDGE_LOOP ( 'NONE', ( #209 ) ) ;
#92 = AXIS2_PLACEMENT_3D ( 'NONE', #109, #235, #3 ) ;
#93 =( NAMED_UNIT ( * ) PLANE_ANGLE_UNIT ( ) SI_UNIT ( $, .RADIAN. ) );
#94 = EDGE_LOOP ( 'NONE', ( #159 ) ) ;
#95 = EDGE_LOOP ( 'NONE', ( #55 ) ) ;
#96 = CARTESIAN_POINT ( 'NONE',  ( 0.0000000000000000000, 0.0000000000000000000, 0.0000000000000000000 ) ) ;
#97 = AXIS2_PLACEMENT_3D ( 'NONE', #58, #153, #37 ) ;
#98 = DIRECTION ( 'NONE',  ( -1.000000000000000000, -3.445426215491412800E-016, -5.895744169461005500E-016 ) ) ;
#99 = DIRECTION ( 'NONE',  ( 1.000000000000000000, 3.445426215491412800E-016, 5.895744169461005500E-016 ) ) ;
#100 = CC_DESIGN_PERSON_AND_ORGANIZATION_ASSIGNMENT ( #224, #12, ( #34 ) ) ;
#101 = CARTESIAN_POINT ( 'NONE',  ( -4.027559055118110200, -8.384041492555619200E-017, 4.192020746277809600E-017 ) ) ;
#102 = ORIENTED_EDGE ( 'NONE', *, *, #215, .T. ) ;
#103 = PRODUCT_RELATED_PRODUCT_CATEGORY ( 'detail', '', ( #229 ) ) ;
#104 = APPROVAL_STATUS ( 'not_yet_approved' ) ;
#105 = EDGE_CURVE ( 'NONE', #75, #75, #251, .T. ) ;
#106 = CARTESIAN_POINT ( 'NONE',  ( -2.263779527559056000, -4.712437789070853600E-017, 2.356218894535426800E-017 ) ) ;
#107 = ORIENTED_EDGE ( 'NONE', *, *, #59, .T. ) ;
#108 = DIRECTION ( 'NONE',  ( -5.937928768624767400E-016, 3.608224830031758300E-016, -1.000000000000000000 ) ) ;
#109 = CARTESIAN_POINT ( 'NONE',  ( -4.527559055118112000, -9.424875578141707100E-017, 4.712437789070853600E-017 ) ) ;
#110 = CIRCLE ( 'NONE', #240, 3.509147575539696400 ) ;
#111 = ADVANCED_FACE ( 'NONE', ( #231, #184 ), #185, .T. ) ;
#112 = DIRECTION ( 'NONE',  ( -1.000000000000000000, -3.445426215491412800E-016, -5.895744169461005500E-016 ) ) ;
#113 = MECHANICAL_CONTEXT ( 'NONE', #246, 'mechanical' ) ;
#114 = CALENDAR_DATE ( 2017, 31, 7 ) ;
#115 = CIRCLE ( 'NONE', #227, 3.937007874015748100 ) ;
#116 = AXIS2_PLACEMENT_3D ( 'NONE', #218, #237, #90 ) ;
#117 = COORDINATED_UNIVERSAL_TIME_OFFSET ( 5, 0, .BEHIND. ) ;
#118 = CARTESIAN_POINT ( 'NONE',  ( -4.527559055118112000, 4.248031496063031700, 4.712437789070853600E-017 ) ) ;
#119 = CC_DESIGN_PERSON_AND_ORGANIZATION_ASSIGNMENT ( #13, #244, ( #18 ) ) ;
#120 = VERTEX_POINT ( 'NONE', #201 ) ;
#121 = FACE_OUTER_BOUND ( 'NONE', #249, .T. ) ;
#122 = CIRCLE ( 'NONE', #143, 3.220472440944881900 ) ;
#123 = ADVANCED_FACE ( 'NONE', ( #187, #233 ), #49, .T. ) ;
#124 = PERSON_AND_ORGANIZATION ( #40, #61 ) ;
#125 = FACE_OUTER_BOUND ( 'NONE', #91, .T. ) ;
#126 = COORDINATED_UNIVERSAL_TIME_OFFSET ( 5, 0, .BEHIND. ) ;
#127 = FACE_BOUND ( 'NONE', #182, .T. ) ;
#128 = AXIS2_PLACEMENT_3D ( 'NONE', #130, #147, #52 ) ;
#129 = ADVANCED_FACE ( 'NONE', ( #36, #225 ), #165, .T. ) ;
#130 = CARTESIAN_POINT ( 'NONE',  ( -0.7874015748031495400, -1.639108796198557100E-017, 8.195543980992785600E-018 ) ) ;
#131 = APPROVAL ( #67, 'UNSPECIFIED' ) ;
#132 = CONICAL_SURFACE ( 'NONE', #139, 3.509147575539696400, 0.5235987755982981500 ) ;
#133 = APPLICATION_CONTEXT ( 'configuration controlled 3d designs of mechanical parts and assemblies' ) ;
#134 = VERTEX_POINT ( 'NONE', #167 ) ;
#135 = PERSON_AND_ORGANIZATION_ROLE ( 'creator' ) ;
#136 = PRODUCT_DEFINITION_SHAPE ( 'NONE', 'NONE',  #34 ) ;
#137 = COORDINATED_UNIVERSAL_TIME_OFFSET ( 5, 0, .BEHIND. ) ;
#138 = CARTESIAN_POINT ( 'NONE',  ( -3.897637795275592100, -8.113588541182859400E-017, 4.056794270591429700E-017 ) ) ;
#139 = AXIS2_PLACEMENT_3D ( 'NONE', #197, #112, #157 ) ;
#140 = DIRECTION ( 'NONE',  ( 1.000000000000000000, 0.0000000000000000000, 0.0000000000000000000 ) ) ;
#141 = DIRECTION ( 'NONE',  ( 1.000000000000000000, 3.445426215491416700E-016, -5.895744169461020300E-016 ) ) ;
#142 = APPLICATION_PROTOCOL_DEFINITION ( 'international standard', 'config_control_design', 1994, #133 ) ;
#143 = AXIS2_PLACEMENT_3D ( 'NONE', #101, #173, #245 ) ;
#144 = DIRECTION ( 'NONE',  ( 6.227946667632781200E-016, -3.608224830031758300E-016, 1.000000000000000000 ) ) ;
#145 = DIRECTION ( 'NONE',  ( -5.895744169461021300E-016, 3.608224830031758800E-016, -1.000000000000000000 ) ) ;
#146 = FACE_OUTER_BOUND ( 'NONE', #95, .T. ) ;
#147 = DIRECTION ( 'NONE',  ( 1.000000000000000000, 3.445426215491412800E-016, 5.895744169461005500E-016 ) ) ;
#148 = PLANE ( 'NONE',  #5 ) ;
#149 = CARTESIAN_POINT ( 'NONE',  ( -3.267716535433070400, 4.921259842519702900, 3.401150752112005900E-017 ) ) ;
#150 = CYLINDRICAL_SURFACE ( 'NONE', #166, 3.220472440944881900 ) ;
#151 = ADVANCED_FACE ( 'NONE', ( #127, #125 ), #148, .T. ) ;
#152 = DIRECTION ( 'NONE',  ( 5.895744169461021300E-016, -3.608224830031758800E-016, 1.000000000000000000 ) ) ;
#153 = DIRECTION ( 'NONE',  ( -1.000000000000000000, -3.445426215491412800E-016, -5.895744169461005500E-016 ) ) ;
#154 = VERTEX_POINT ( 'NONE', #17 ) ;
#155 = CARTESIAN_POINT ( 'NONE',  ( -4.527559055118110200, -1.360428097212225000E-015, 3.509147575539696400 ) ) ;
#156 = CARTESIAN_POINT ( 'NONE',  ( -3.267716535433074800, -6.802301504224021600E-017, 3.401150752112010800E-017 ) ) ;
#157 = DIRECTION ( 'NONE',  ( 6.227946667632781200E-016, -3.608224830031758300E-016, 1.000000000000000000 ) ) ;
#158 = DIRECTION ( 'NONE',  ( 5.981805089575196200E-016, -3.608224830031758800E-016, 1.000000000000000000 ) ) ;
#159 = ORIENTED_EDGE ( 'NONE', *, *, #105, .T. ) ;
#160 = LOCAL_TIME ( 10, 6, 40.00000000000000000, #137 ) ;
#161 = ORIENTED_EDGE ( 'NONE', *, *, #171, .F. ) ;
#162 = AXIS2_PLACEMENT_3D ( 'NONE', #156, #208, #158 ) ;
#163 = DATE_TIME_ROLE ( 'classification_date' ) ;
#164 = DIRECTION ( 'NONE',  ( 1.000000000000000000, 3.445426215491412800E-016, 5.895744169461005500E-016 ) ) ;
#165 = PLANE ( 'NONE',  #210 ) ;
#166 = AXIS2_PLACEMENT_3D ( 'NONE', #106, #45, #108 ) ;
#167 = CARTESIAN_POINT ( 'NONE',  ( -4.027559055118108400, -1.245859277510587100E-015, 3.220472440944881900 ) ) ;
#168 = PERSON_AND_ORGANIZATION_ROLE ( 'classification_officer' ) ;
#169 = CALENDAR_DATE ( 2017, 31, 7 ) ;
#170 = PERSON_AND_ORGANIZATION ( #40, #61 ) ;
#171 = EDGE_CURVE ( 'NONE', #83, #83, #22, .T. ) ;
#172 = FACE_BOUND ( 'NONE', #50, .T. ) ;
#173 = DIRECTION ( 'NONE',  ( -1.000000000000000000, -3.445426215491412800E-016, -5.895744169461005500E-016 ) ) ;
#174 = APPROVAL_DATE_TIME ( #72, #131 ) ;
#175 = APPROVAL_PERSON_ORGANIZATION ( #15, #131, #28 ) ;
#176 = ORIENTED_EDGE ( 'NONE', *, *, #105, .F. ) ;
#177 = EDGE_CURVE ( 'NONE', #21, #21, #193, .T. ) ;
#178 = CALENDAR_DATE ( 2017, 31, 7 ) ;
#179 = CARTESIAN_POINT ( 'NONE',  ( -3.267716535433073900, 1.835528666943018400E-015, -5.275590551181102800 ) ) ;
#180 = COORDINATED_UNIVERSAL_TIME_OFFSET ( 5, 0, .BEHIND. ) ;
#181 = EDGE_LOOP ( 'NONE', ( #78 ) ) ;
#182 = EDGE_LOOP ( 'NONE', ( #102 ) ) ;
#183 = DATE_TIME_ROLE ( 'creation_date' ) ;
#184 = FACE_OUTER_BOUND ( 'NONE', #27, .T. ) ;
#185 = CYLINDRICAL_SURFACE ( 'NONE', #128, 3.937007874015748100 ) ;
#186 = FACE_OUTER_BOUND ( 'NONE', #10, .T. ) ;
#187 = FACE_OUTER_BOUND ( 'NONE', #243, .T. ) ;
#188 = EDGE_LOOP ( 'NONE', ( #1 ) ) ;
#189 = CIRCLE ( 'NONE', #116, 3.220472440944881900 ) ;
#190 = EDGE_LOOP ( 'NONE', ( #42 ) ) ;
#191 = LOCAL_TIME ( 10, 6, 40.00000000000000000, #180 ) ;
#192 = PERSON_AND_ORGANIZATION_ROLE ( 'design_owner' ) ;
#193 = CIRCLE ( 'NONE', #92, 5.275590551181102800 ) ;
#194 = ORIENTED_EDGE ( 'NONE', *, *, #4, .T. ) ;
#195 = CC_DESIGN_DATE_AND_TIME_ASSIGNMENT ( #26, #163, ( #202 ) ) ;
#196 = EDGE_CURVE ( 'NONE', #154, #154, #115, .T. ) ;
#197 = CARTESIAN_POINT ( 'NONE',  ( -4.527559055118112000, -9.424875578141707100E-017, 4.712437789070853600E-017 ) ) ;
#198 = CC_DESIGN_SECURITY_CLASSIFICATION ( #202, ( #18 ) ) ;
#199 = APPROVAL_ROLE ( '' ) ;
#200 = ADVANCED_FACE ( 'NONE', ( #172, #14 ), #70, .T. ) ;
#201 = CARTESIAN_POINT ( 'NONE',  ( -1.898708161661068900E-015, 1.162018862585030800E-015, -3.220472440944881900 ) ) ;
#202 = SECURITY_CLASSIFICATION ( '', '', #220 ) ;
#203 = DESIGN_CONTEXT ( 'detailed design', #133, 'design' ) ;
#204 = PERSON_AND_ORGANIZATION ( #40, #61 ) ;
#205 = CARTESIAN_POINT ( 'NONE',  ( 0.0000000000000000000, 0.0000000000000000000, 0.0000000000000000000 ) ) ;
#206 = DATE_AND_TIME ( #47, #6 ) ;
#207 = CARTESIAN_POINT ( 'NONE',  ( -3.267716535433072600, -6.802301504224016700E-017, 3.401150752112008300E-017 ) ) ;
#208 = DIRECTION ( 'NONE',  ( -1.000000000000000000, -3.445426215491412800E-016, -5.895744169461005500E-016 ) ) ;
#209 = ORIENTED_EDGE ( 'NONE', *, *, #196, .T. ) ;
#210 = AXIS2_PLACEMENT_3D ( 'NONE', #118, #211, #152 ) ;
#211 = DIRECTION ( 'NONE',  ( -1.000000000000000000, -3.445426215491416700E-016, 5.895744169461020300E-016 ) ) ;
#212 = PERSON_AND_ORGANIZATION ( #40, #61 ) ;
#213 = CARTESIAN_POINT ( 'NONE',  ( -1.574803149606296900, -3.278217592397109900E-017, 1.639108796198555000E-017 ) ) ;
#214 = CYLINDRICAL_SURFACE ( 'NONE', #44, 5.275590551181102800 ) ;
#215 = EDGE_CURVE ( 'NONE', #120, #120, #189, .T. ) ;
#216 = PERSON_AND_ORGANIZATION ( #40, #61 ) ;
#217 = CARTESIAN_POINT ( 'NONE',  ( -3.267716535433072200, -1.715873724820524200E-015, 4.566929133858268500 ) ) ;
#218 = CARTESIAN_POINT ( 'NONE',  ( 0.0000000000000000000, 0.0000000000000000000, 0.0000000000000000000 ) ) ;
#219 = LOCAL_TIME ( 10, 6, 40.00000000000000000, #126 ) ;
#220 = SECURITY_CLASSIFICATION_LEVEL ( 'unclassified' ) ;
#221 = APPROVAL ( #250, 'UNSPECIFIED' ) ;
#222 = APPROVAL_PERSON_ORGANIZATION ( #204, #24, #199 ) ;
#223 = EDGE_LOOP ( 'NONE', ( #107 ) ) ;
#224 = PERSON_AND_ORGANIZATION ( #40, #61 ) ;
#225 = FACE_OUTER_BOUND ( 'NONE', #181, .T. ) ;
#226 = APPROVAL_DATE_TIME ( #39, #24 ) ;
#227 = AXIS2_PLACEMENT_3D ( 'NONE', #205, #164, #236 ) ;
#228 = CARTESIAN_POINT ( 'NONE',  ( -4.527559055118112000, -9.424875578141707100E-017, 4.712437789070853600E-017 ) ) ;
#229 = PRODUCT ( '581136080', '581136080', '', ( #113 ) ) ;
#230 = ORIENTED_EDGE ( 'NONE', *, *, #196, .F. ) ;
#231 = FACE_OUTER_BOUND ( 'NONE', #73, .T. ) ;
#232 = DIRECTION ( 'NONE',  ( 4.163336342344327200E-016, 1.000000000000000000, -7.494005416219787900E-016 ) ) ;
#233 = FACE_BOUND ( 'NONE', #94, .T. ) ;
#234 =( LENGTH_UNIT ( ) NAMED_UNIT ( * ) SI_UNIT ( $, .METRE. ) );
#235 = DIRECTION ( 'NONE',  ( -1.000000000000000000, -3.445426215491412800E-016, -5.895744169461005500E-016 ) ) ;
#236 = DIRECTION ( 'NONE',  ( -5.895744169461022300E-016, 3.608224830031758800E-016, -1.000000000000000000 ) ) ;
#237 = DIRECTION ( 'NONE',  ( -1.000000000000000000, -3.445426215491412800E-016, -5.895744169461005500E-016 ) ) ;
#238 = VERTEX_POINT ( 'NONE', #155 ) ;
#239 = ORIENTED_EDGE ( 'NONE', *, *, #215, .F. ) ;
#240 = AXIS2_PLACEMENT_3D ( 'NONE', #228, #99, #144 ) ;
#241 = APPROVAL_DATE_TIME ( #206, #221 ) ;
#242 = CC_DESIGN_PERSON_AND_ORGANIZATION_ASSIGNMENT ( #212, #168, ( #202 ) ) ;
#243 = EDGE_LOOP ( 'NONE', ( #161 ) ) ;
#244 = PERSON_AND_ORGANIZATION_ROLE ( 'design_supplier' ) ;
#245 = DIRECTION ( 'NONE',  ( 5.089653230249800500E-016, -3.608224830031758300E-016, 1.000000000000000000 ) ) ;
#246 = APPLICATION_CONTEXT ( 'configuration controlled 3d designs of mechanical parts and assemblies' ) ;
#247 = ADVANCED_FACE ( 'NONE', ( #121, #2 ), #214, .T. ) ;
#248 = DIMENSIONAL_EXPONENTS ( 1.000000000000000000, 0.0000000000000000000, 0.0000000000000000000, 0.0000000000000000000, 0.0000000000000000000, 0.0000000000000000000, 0.0000000000000000000 ) ;
#249 = EDGE_LOOP ( 'NONE', ( #63 ) ) ;
#250 = APPROVAL_STATUS ( 'not_yet_approved' ) ;
#251 = CIRCLE ( 'NONE', #48, 3.937007874015757500 ) ;
#252 = CC_DESIGN_APPROVAL ( #131, ( #18 ) ) ;
ENDSEC;
END-ISO-10303-21;
