ISO-10303-21;
HEADER;
FILE_DESCRIPTION (( 'STEP AP203' ),
    '1' );
FILE_NAME ('581136120.STEP',
    '2017-07-31T14:16:50',
    ( '' ),
    ( '' ),
    'SwSTEP 2.0',
    'SolidWorks 2017',
    '' );
FILE_SCHEMA (( 'CONFIG_CONTROL_DESIGN' ));
ENDSEC;

DATA;
#1 = CC_DESIGN_DATE_AND_TIME_ASSIGNMENT ( #88, #80, ( #225 ) ) ;
#2 = CIRCLE ( 'NONE', #118, 6.200787401574803700 ) ;
#3 = CARTESIAN_POINT ( 'NONE',  ( -4.665354330708662000, 0.0000000000000000000, 0.0000000000000000000 ) ) ;
#4 = ORIENTED_EDGE ( 'NONE', *, *, #212, .T. ) ;
#5 = ORIENTED_EDGE ( 'NONE', *, *, #170, .F. ) ;
#6 = CC_DESIGN_APPROVAL ( #180, ( #43 ) ) ;
#7 = MECHANICAL_CONTEXT ( 'NONE', #183, 'mechanical' ) ;
#8 = DIRECTION ( 'NONE',  ( 0.0000000000000000000, 0.0000000000000000000, -1.000000000000000000 ) ) ;
#9 = ORIENTED_EDGE ( 'NONE', *, *, #115, .F. ) ;
#10 = AXIS2_PLACEMENT_3D ( 'NONE', #179, #151, #62 ) ;
#11 = CARTESIAN_POINT ( 'NONE',  ( 0.0000000000000000000, 0.0000000000000000000, -6.200787401574803700 ) ) ;
#12 = DIRECTION ( 'NONE',  ( 1.000000000000000000, 0.0000000000000000000, 0.0000000000000000000 ) ) ;
#13 = EDGE_LOOP ( 'NONE', ( #108 ) ) ;
#14 = DIRECTION ( 'NONE',  ( -1.000000000000000000, -0.0000000000000000000, 0.0000000000000000000 ) ) ;
#15 = APPROVAL ( #154, 'UNSPECIFIED' ) ;
#16 = APPLICATION_CONTEXT ( 'configuration controlled 3d designs of mechanical parts and assemblies' ) ;
#17 = APPROVAL_DATE_TIME ( #44, #180 ) ;
#18 = FACE_OUTER_BOUND ( 'NONE', #33, .T. ) ;
#19 = APPLICATION_PROTOCOL_DEFINITION ( 'international standard', 'config_control_design', 1994, #16 ) ;
#20 = APPROVAL_PERSON_ORGANIZATION ( #201, #15, #94 ) ;
#21 = ADVANCED_FACE ( 'NONE', ( #247, #233 ), #87, .T. ) ;
#22 = DIRECTION ( 'NONE',  ( 1.000000000000000000, 0.0000000000000000000, 0.0000000000000000000 ) ) ;
#23 = DIRECTION ( 'NONE',  ( 0.0000000000000000000, 0.0000000000000000000, -1.000000000000000000 ) ) ;
#24 = SHAPE_DEFINITION_REPRESENTATION ( #103, #144 ) ;
#25 = CLOSED_SHELL ( 'NONE', ( #21, #82, #76, #133, #162, #30, #164, #193 ) ) ;
#26 = EDGE_LOOP ( 'NONE', ( #60 ) ) ;
#27 = ORIENTED_EDGE ( 'NONE', *, *, #85, .F. ) ;
#28 = EDGE_LOOP ( 'NONE', ( #191 ) ) ;
#29 = LOCAL_TIME ( 10, 16, 50.00000000000000000, #156 ) ;
#30 = ADVANCED_FACE ( 'NONE', ( #123, #99 ), #251, .T. ) ;
#31 = PERSON_AND_ORGANIZATION_ROLE ( 'creator' ) ;
#32 = FACE_BOUND ( 'NONE', #65, .T. ) ;
#33 = EDGE_LOOP ( 'NONE', ( #241 ) ) ;
#34 = DIRECTION ( 'NONE',  ( 0.0000000000000000000, 0.0000000000000000000, -1.000000000000000000 ) ) ;
#35 = PERSON_AND_ORGANIZATION ( #146, #234 ) ;
#36 = PERSON_AND_ORGANIZATION_ROLE ( 'creator' ) ;
#37 = DIRECTION ( 'NONE',  ( -1.000000000000000000, -0.0000000000000000000, 0.0000000000000000000 ) ) ;
#38 = FACE_BOUND ( 'NONE', #40, .T. ) ;
#39 = CARTESIAN_POINT ( 'NONE',  ( -4.504330708661407300, 0.0000000000000000000, 5.074803149606300000 ) ) ;
#40 = EDGE_LOOP ( 'NONE', ( #230 ) ) ;
#41 = APPROVAL_DATE_TIME ( #130, #74 ) ;
#42 = DIRECTION ( 'NONE',  ( 0.0000000000000000000, 0.0000000000000000000, -1.000000000000000000 ) ) ;
#43 = SECURITY_CLASSIFICATION ( '', '', #232 ) ;
#44 = DATE_AND_TIME ( #75, #90 ) ;
#45 = EDGE_LOOP ( 'NONE', ( #86 ) ) ;
#46 = DIRECTION ( 'NONE',  ( -1.000000000000000000, -0.0000000000000000000, -0.0000000000000000000 ) ) ;
#47 = ORIENTED_EDGE ( 'NONE', *, *, #85, .T. ) ;
#48 = APPROVAL_ROLE ( '' ) ;
#49 = ORIENTED_EDGE ( 'NONE', *, *, #170, .T. ) ;
#50 = CIRCLE ( 'NONE', #206, 5.565550878417484500 ) ;
#51 = LOCAL_TIME ( 10, 16, 50.00000000000000000, #242 ) ;
#52 = FACE_OUTER_BOUND ( 'NONE', #204, .T. ) ;
#53 = VERTEX_POINT ( 'NONE', #181 ) ;
#54 = PERSON_AND_ORGANIZATION ( #146, #234 ) ;
#55 = CARTESIAN_POINT ( 'NONE',  ( -5.354330708661417600, 0.0000000000000000000, 0.0000000000000000000 ) ) ;
#56 = EDGE_LOOP ( 'NONE', ( #49 ) ) ;
#57 = APPLICATION_PROTOCOL_DEFINITION ( 'international standard', 'config_control_design', 1994, #183 ) ;
#58 = DIRECTION ( 'NONE',  ( 0.0000000000000000000, 0.0000000000000000000, 1.000000000000000000 ) ) ;
#59 = DIRECTION ( 'NONE',  ( 0.0000000000000000000, 0.0000000000000000000, 1.000000000000000000 ) ) ;
#60 = ORIENTED_EDGE ( 'NONE', *, *, #73, .T. ) ;
#61 = ORIENTED_EDGE ( 'NONE', *, *, #212, .F. ) ;
#62 = DIRECTION ( 'NONE',  ( 0.0000000000000000000, 0.0000000000000000000, -1.000000000000000000 ) ) ;
#63 = CARTESIAN_POINT ( 'NONE',  ( -5.354330708661417600, 0.0000000000000000000, 5.565550878417484500 ) ) ;
#64 = DIRECTION ( 'NONE',  ( -1.762258769246280100E-016, 1.000000000000000000, -2.449212707644749600E-016 ) ) ;
#65 = EDGE_LOOP ( 'NONE', ( #4 ) ) ;
#66 = APPROVAL_STATUS ( 'not_yet_approved' ) ;
#67 = CC_DESIGN_PERSON_AND_ORGANIZATION_ASSIGNMENT ( #35, #36, ( #149 ) ) ;
#68 = DIRECTION ( 'NONE',  ( 1.000000000000000000, 0.0000000000000000000, 0.0000000000000000000 ) ) ;
#69 = CC_DESIGN_PERSON_AND_ORGANIZATION_ASSIGNMENT ( #121, #31, ( #225 ) ) ;
#70 = CC_DESIGN_SECURITY_CLASSIFICATION ( #43, ( #149 ) ) ;
#71 = VERTEX_POINT ( 'NONE', #39 ) ;
#72 = FACE_OUTER_BOUND ( 'NONE', #250, .T. ) ;
#73 = EDGE_CURVE ( 'NONE', #53, #53, #153, .T. ) ;
#74 = APPROVAL ( #66, 'UNSPECIFIED' ) ;
#75 = CALENDAR_DATE ( 2017, 31, 7 ) ;
#76 = ADVANCED_FACE ( 'NONE', ( #134, #236 ), #194, .F. ) ;
#77 = CYLINDRICAL_SURFACE ( 'NONE', #10, 6.200787401574803700 ) ;
#78 = FACE_BOUND ( 'NONE', #26, .T. ) ;
#79 = AXIS2_PLACEMENT_3D ( 'NONE', #124, #12, #217 ) ;
#80 = DATE_TIME_ROLE ( 'creation_date' ) ;
#81 = CARTESIAN_POINT ( 'NONE',  ( -2.559055118110235200, 6.200787401574803700, -1.518704730134047500E-015 ) ) ;
#82 = ADVANCED_FACE ( 'NONE', ( #52, #138 ), #113, .T. ) ;
#83 = EDGE_LOOP ( 'NONE', ( #252 ) ) ;
#84 = AXIS2_PLACEMENT_3D ( 'NONE', #185, #37, #59 ) ;
#85 = EDGE_CURVE ( 'NONE', #95, #95, #2, .T. ) ;
#86 = ORIENTED_EDGE ( 'NONE', *, *, #73, .F. ) ;
#87 = PLANE ( 'NONE',  #98 ) ;
#88 = DATE_AND_TIME ( #248, #107 ) ;
#89 = AXIS2_PLACEMENT_3D ( 'NONE', #192, #166, #165 ) ;
#90 = LOCAL_TIME ( 10, 16, 50.00000000000000000, #155 ) ;
#91 = CIRCLE ( 'NONE', #89, 5.074803149606300000 ) ;
#92 = AXIS2_PLACEMENT_3D ( 'NONE', #135, #68, #110 ) ;
#93 = EDGE_CURVE ( 'NONE', #71, #71, #91, .T. ) ;
#94 = APPROVAL_ROLE ( '' ) ;
#95 = VERTEX_POINT ( 'NONE', #81 ) ;
#96 = LENGTH_MEASURE_WITH_UNIT ( LENGTH_MEASURE( 0.02539999999999999900 ), #145 );
#97 = CARTESIAN_POINT ( 'NONE',  ( -5.354330708661417600, 0.0000000000000000000, 0.0000000000000000000 ) ) ;
#98 = AXIS2_PLACEMENT_3D ( 'NONE', #114, #126, #202 ) ;
#99 = FACE_BOUND ( 'NONE', #120, .T. ) ;
#100 = CIRCLE ( 'NONE', #249, 7.283464566929134200 ) ;
#101 = CARTESIAN_POINT ( 'NONE',  ( -5.354330708661417600, 0.0000000000000000000, 0.0000000000000000000 ) ) ;
#102 = DATE_AND_TIME ( #243, #51 ) ;
#103 = PRODUCT_DEFINITION_SHAPE ( 'NONE', 'NONE',  #225 ) ;
#104 = APPROVAL_PERSON_ORGANIZATION ( #200, #74, #176 ) ;
#105 = PERSON_AND_ORGANIZATION ( #146, #234 ) ;
#106 = DIRECTION ( 'NONE',  ( -1.000000000000000000, -0.0000000000000000000, -0.0000000000000000000 ) ) ;
#107 = LOCAL_TIME ( 10, 16, 50.00000000000000000, #117 ) ;
#108 = ORIENTED_EDGE ( 'NONE', *, *, #132, .T. ) ;
#109 = CARTESIAN_POINT ( 'NONE',  ( -3.976377952755906000, 0.0000000000000000000, 0.0000000000000000000 ) ) ;
#110 = DIRECTION ( 'NONE',  ( 0.0000000000000000000, 0.0000000000000000000, -1.000000000000000000 ) ) ;
#111 = PLANE ( 'NONE',  #245 ) ;
#112 =( NAMED_UNIT ( * ) PLANE_ANGLE_UNIT ( ) SI_UNIT ( $, .RADIAN. ) );
#113 = CYLINDRICAL_SURFACE ( 'NONE', #219, 7.283464566929134200 ) ;
#114 = CARTESIAN_POINT ( 'NONE',  ( -5.354330708661417600, 6.179133858267715800, -1.513401316790724600E-015 ) ) ;
#115 = EDGE_CURVE ( 'NONE', #239, #239, #163, .T. ) ;
#116 = DIRECTION ( 'NONE',  ( -1.000000000000000000, -0.0000000000000000000, -0.0000000000000000000 ) ) ;
#117 = COORDINATED_UNIVERSAL_TIME_OFFSET ( 5, 0, .BEHIND. ) ;
#118 = AXIS2_PLACEMENT_3D ( 'NONE', #178, #177, #64 ) ;
#119 = DIRECTION ( 'NONE',  ( 0.0000000000000000000, 0.0000000000000000000, 1.000000000000000000 ) ) ;
#120 = EDGE_LOOP ( 'NONE', ( #47 ) ) ;
#121 = PERSON_AND_ORGANIZATION ( #146, #234 ) ;
#122 = PERSON_AND_ORGANIZATION_ROLE ( 'design_supplier' ) ;
#123 = FACE_OUTER_BOUND ( 'NONE', #125, .T. ) ;
#124 = CARTESIAN_POINT ( 'NONE',  ( 0.0000000000000000000, 5.637795275590550900, -1.380815983207594800E-015 ) ) ;
#125 = EDGE_LOOP ( 'NONE', ( #61 ) ) ;
#126 = DIRECTION ( 'NONE',  ( -1.000000000000000000, 0.0000000000000000000, 0.0000000000000000000 ) ) ;
#127 = EDGE_LOOP ( 'NONE', ( #27 ) ) ;
#128 = CALENDAR_DATE ( 2017, 31, 7 ) ;
#129 = PRODUCT ( '581136120', '581136120', '', ( #7 ) ) ;
#130 = DATE_AND_TIME ( #227, #29 ) ;
#131 = CC_DESIGN_APPROVAL ( #15, ( #225 ) ) ;
#132 = EDGE_CURVE ( 'NONE', #157, #157, #100, .T. ) ;
#133 = ADVANCED_FACE ( 'NONE', ( #32, #18 ), #111, .T. ) ;
#134 = FACE_OUTER_BOUND ( 'NONE', #83, .T. ) ;
#135 = CARTESIAN_POINT ( 'NONE',  ( -2.677165354330708800, 0.0000000000000000000, 0.0000000000000000000 ) ) ;
#136 = APPROVAL_DATE_TIME ( #160, #15 ) ;
#137 = DATE_TIME_ROLE ( 'classification_date' ) ;
#138 = FACE_OUTER_BOUND ( 'NONE', #13, .T. ) ;
#139 = DIRECTION ( 'NONE',  ( 0.0000000000000000000, 0.0000000000000000000, -1.000000000000000000 ) ) ;
#140 =( GEOMETRIC_REPRESENTATION_CONTEXT ( 3 ) GLOBAL_UNCERTAINTY_ASSIGNED_CONTEXT ( ( #188 ) ) GLOBAL_UNIT_ASSIGNED_CONTEXT ( ( #240, #112, #218 ) ) REPRESENTATION_CONTEXT ( 'NONE', 'WORKASPACE' ) );
#141 = AXIS2_PLACEMENT_3D ( 'NONE', #237, #229, #209 ) ;
#142 = EDGE_LOOP ( 'NONE', ( #211 ) ) ;
#143 = CARTESIAN_POINT ( 'NONE',  ( -5.354330708661417600, 0.0000000000000000000, -7.283464566929134200 ) ) ;
#144 = ADVANCED_BREP_SHAPE_REPRESENTATION ( '581136120', ( #216, #141 ), #140 ) ;
#145 =( LENGTH_UNIT ( ) NAMED_UNIT ( * ) SI_UNIT ( $, .METRE. ) );
#146 = PERSON ( 'UNSPECIFIED', 'UNSPECIFIED', 'UNSPECIFIED', ('UNSPECIFIED'), ('UNSPECIFIED'), ('UNSPECIFIED') ) ;
#147 = VERTEX_POINT ( 'NONE', #63 ) ;
#148 = APPROVAL_PERSON_ORGANIZATION ( #169, #180, #48 ) ;
#149 = PRODUCT_DEFINITION_FORMATION_WITH_SPECIFIED_SOURCE ( 'ANY', '', #129, .NOT_KNOWN. ) ;
#150 = CARTESIAN_POINT ( 'NONE',  ( 0.0000000000000000000, 0.0000000000000000000, 0.0000000000000000000 ) ) ;
#151 = DIRECTION ( 'NONE',  ( 1.000000000000000000, 0.0000000000000000000, 0.0000000000000000000 ) ) ;
#152 = CARTESIAN_POINT ( 'NONE',  ( -3.976377952755906000, 0.0000000000000000000, -7.283464566929134200 ) ) ;
#153 = CIRCLE ( 'NONE', #244, 5.074803149606300000 ) ;
#154 = APPROVAL_STATUS ( 'not_yet_approved' ) ;
#155 = COORDINATED_UNIVERSAL_TIME_OFFSET ( 5, 0, .BEHIND. ) ;
#156 = COORDINATED_UNIVERSAL_TIME_OFFSET ( 5, 0, .BEHIND. ) ;
#157 = VERTEX_POINT ( 'NONE', #152 ) ;
#158 = PRODUCT_RELATED_PRODUCT_CATEGORY ( 'detail', '', ( #129 ) ) ;
#159 = COORDINATED_UNIVERSAL_TIME_OFFSET ( 5, 0, .BEHIND. ) ;
#160 = DATE_AND_TIME ( #128, #213 ) ;
#161 = PERSON_AND_ORGANIZATION_ROLE ( 'design_owner' ) ;
#162 = ADVANCED_FACE ( 'NONE', ( #78, #198 ), #235, .T. ) ;
#163 = CIRCLE ( 'NONE', #208, 6.200787401574803700 ) ;
#164 = ADVANCED_FACE ( 'NONE', ( #189, #72 ), #77, .T. ) ;
#165 = DIRECTION ( 'NONE',  ( 0.0000000000000000000, 0.0000000000000000000, 1.000000000000000000 ) ) ;
#166 = DIRECTION ( 'NONE',  ( -1.000000000000000000, -0.0000000000000000000, -0.0000000000000000000 ) ) ;
#167 = CARTESIAN_POINT ( 'NONE',  ( 0.0000000000000000000, 0.0000000000000000000, 0.0000000000000000000 ) ) ;
#168 = DESIGN_CONTEXT ( 'detailed design', #16, 'design' ) ;
#169 = PERSON_AND_ORGANIZATION ( #146, #234 ) ;
#170 = EDGE_CURVE ( 'NONE', #172, #172, #186, .T. ) ;
#171 = CARTESIAN_POINT ( 'NONE',  ( -3.976377952755904700, 0.0000000000000000000, 0.0000000000000000000 ) ) ;
#172 = VERTEX_POINT ( 'NONE', #143 ) ;
#173 = CONICAL_SURFACE ( 'NONE', #238, 5.565550878417484500, 0.5235987755982958200 ) ;
#174 = ORIENTED_EDGE ( 'NONE', *, *, #203, .T. ) ;
#175 = CARTESIAN_POINT ( 'NONE',  ( -3.976377952755906000, 6.938976377952755600, -1.699502912292866200E-015 ) ) ;
#176 = APPROVAL_ROLE ( '' ) ;
#177 = DIRECTION ( 'NONE',  ( -1.000000000000000000, 0.0000000000000000000, 0.0000000000000000000 ) ) ;
#178 = CARTESIAN_POINT ( 'NONE',  ( -2.559055118110234300, 0.0000000000000000000, 0.0000000000000000000 ) ) ;
#179 = CARTESIAN_POINT ( 'NONE',  ( -1.279527559055118300, 0.0000000000000000000, 0.0000000000000000000 ) ) ;
#180 = APPROVAL ( #222, 'UNSPECIFIED' ) ;
#181 = CARTESIAN_POINT ( 'NONE',  ( 0.0000000000000000000, 0.0000000000000000000, -5.074803149606300000 ) ) ;
#182 = DIMENSIONAL_EXPONENTS ( 1.000000000000000000, 0.0000000000000000000, 0.0000000000000000000, 0.0000000000000000000, 0.0000000000000000000, 0.0000000000000000000, 0.0000000000000000000 ) ;
#183 = APPLICATION_CONTEXT ( 'configuration controlled 3d designs of mechanical parts and assemblies' ) ;
#184 = CC_DESIGN_PERSON_AND_ORGANIZATION_ASSIGNMENT ( #105, #161, ( #129 ) ) ;
#185 = CARTESIAN_POINT ( 'NONE',  ( -3.976377952755906900, 0.0000000000000000000, 0.0000000000000000000 ) ) ;
#186 = CIRCLE ( 'NONE', #214, 7.283464566929134200 ) ;
#187 = CIRCLE ( 'NONE', #196, 6.594488188976377800 ) ;
#188 = UNCERTAINTY_MEASURE_WITH_UNIT (LENGTH_MEASURE( 1.000000000000000100E-005 ), #240, 'distance_accuracy_value', 'NONE');
#189 = FACE_OUTER_BOUND ( 'NONE', #127, .T. ) ;
#190 = CC_DESIGN_APPROVAL ( #74, ( #149 ) ) ;
#191 = ORIENTED_EDGE ( 'NONE', *, *, #115, .T. ) ;
#192 = CARTESIAN_POINT ( 'NONE',  ( -4.504330708661407300, 0.0000000000000000000, 0.0000000000000000000 ) ) ;
#193 = ADVANCED_FACE ( 'NONE', ( #38, #221 ), #173, .F. ) ;
#194 = CYLINDRICAL_SURFACE ( 'NONE', #92, 5.074803149606300000 ) ;
#195 = CARTESIAN_POINT ( 'NONE',  ( -3.976377952755904700, 0.0000000000000000000, 6.594488188976377800 ) ) ;
#196 = AXIS2_PLACEMENT_3D ( 'NONE', #171, #14, #231 ) ;
#197 = PERSON_AND_ORGANIZATION ( #146, #234 ) ;
#198 = FACE_OUTER_BOUND ( 'NONE', #28, .T. ) ;
#199 = DIRECTION ( 'NONE',  ( 1.000000000000000000, -0.0000000000000000000, -0.0000000000000000000 ) ) ;
#200 = PERSON_AND_ORGANIZATION ( #146, #234 ) ;
#201 = PERSON_AND_ORGANIZATION ( #146, #234 ) ;
#202 = DIRECTION ( 'NONE',  ( 0.0000000000000000000, 0.0000000000000000000, 1.000000000000000000 ) ) ;
#203 = EDGE_CURVE ( 'NONE', #147, #147, #50, .T. ) ;
#204 = EDGE_LOOP ( 'NONE', ( #5 ) ) ;
#205 = CC_DESIGN_PERSON_AND_ORGANIZATION_ASSIGNMENT ( #54, #122, ( #149 ) ) ;
#206 = AXIS2_PLACEMENT_3D ( 'NONE', #97, #199, #119 ) ;
#207 = DIRECTION ( 'NONE',  ( 0.0000000000000000000, 0.0000000000000000000, -1.000000000000000000 ) ) ;
#208 = AXIS2_PLACEMENT_3D ( 'NONE', #167, #22, #207 ) ;
#209 = DIRECTION ( 'NONE',  ( 1.000000000000000000, 0.0000000000000000000, 0.0000000000000000000 ) ) ;
#210 = PERSON_AND_ORGANIZATION_ROLE ( 'classification_officer' ) ;
#211 = ORIENTED_EDGE ( 'NONE', *, *, #203, .F. ) ;
#212 = EDGE_CURVE ( 'NONE', #224, #224, #187, .T. ) ;
#213 = LOCAL_TIME ( 10, 16, 50.00000000000000000, #159 ) ;
#214 = AXIS2_PLACEMENT_3D ( 'NONE', #55, #106, #139 ) ;
#215 = DIRECTION ( 'NONE',  ( 1.000000000000000000, 0.0000000000000000000, 0.0000000000000000000 ) ) ;
#216 = MANIFOLD_SOLID_BREP ( '1', #25 ) ;
#217 = DIRECTION ( 'NONE',  ( 0.0000000000000000000, 0.0000000000000000000, -1.000000000000000000 ) ) ;
#218 =( NAMED_UNIT ( * ) SI_UNIT ( $, .STERADIAN. ) SOLID_ANGLE_UNIT ( ) );
#219 = AXIS2_PLACEMENT_3D ( 'NONE', #3, #215, #42 ) ;
#220 = CC_DESIGN_PERSON_AND_ORGANIZATION_ASSIGNMENT ( #197, #210, ( #43 ) ) ;
#221 = FACE_OUTER_BOUND ( 'NONE', #142, .T. ) ;
#222 = APPROVAL_STATUS ( 'not_yet_approved' ) ;
#223 = CC_DESIGN_DATE_AND_TIME_ASSIGNMENT ( #102, #137, ( #43 ) ) ;
#224 = VERTEX_POINT ( 'NONE', #195 ) ;
#225 = PRODUCT_DEFINITION ( 'UNKNOWN', '', #149, #168 ) ;
#226 = DIRECTION ( 'NONE',  ( -1.000000000000000000, -0.0000000000000000000, -0.0000000000000000000 ) ) ;
#227 = CALENDAR_DATE ( 2017, 31, 7 ) ;
#228 = DIRECTION ( 'NONE',  ( 1.000000000000000000, 0.0000000000000000000, 0.0000000000000000000 ) ) ;
#229 = DIRECTION ( 'NONE',  ( 0.0000000000000000000, 0.0000000000000000000, 1.000000000000000000 ) ) ;
#230 = ORIENTED_EDGE ( 'NONE', *, *, #93, .F. ) ;
#231 = DIRECTION ( 'NONE',  ( 0.0000000000000000000, 0.0000000000000000000, 1.000000000000000000 ) ) ;
#232 = SECURITY_CLASSIFICATION_LEVEL ( 'unclassified' ) ;
#233 = FACE_OUTER_BOUND ( 'NONE', #56, .T. ) ;
#234 = ORGANIZATION ( 'UNSPECIFIED', 'UNSPECIFIED', '' ) ;
#235 = PLANE ( 'NONE',  #79 ) ;
#236 = FACE_OUTER_BOUND ( 'NONE', #45, .T. ) ;
#237 = CARTESIAN_POINT ( 'NONE',  ( 0.0000000000000000000, 0.0000000000000000000, 0.0000000000000000000 ) ) ;
#238 = AXIS2_PLACEMENT_3D ( 'NONE', #101, #46, #58 ) ;
#239 = VERTEX_POINT ( 'NONE', #11 ) ;
#240 =( CONVERSION_BASED_UNIT ( 'INCH', #96 ) LENGTH_UNIT ( ) NAMED_UNIT ( #182 ) );
#241 = ORIENTED_EDGE ( 'NONE', *, *, #132, .F. ) ;
#242 = COORDINATED_UNIVERSAL_TIME_OFFSET ( 5, 0, .BEHIND. ) ;
#243 = CALENDAR_DATE ( 2017, 31, 7 ) ;
#244 = AXIS2_PLACEMENT_3D ( 'NONE', #150, #116, #8 ) ;
#245 = AXIS2_PLACEMENT_3D ( 'NONE', #175, #228, #34 ) ;
#246 = EDGE_LOOP ( 'NONE', ( #174 ) ) ;
#247 = FACE_BOUND ( 'NONE', #246, .T. ) ;
#248 = CALENDAR_DATE ( 2017, 31, 7 ) ;
#249 = AXIS2_PLACEMENT_3D ( 'NONE', #109, #226, #23 ) ;
#250 = EDGE_LOOP ( 'NONE', ( #9 ) ) ;
#251 = CONICAL_SURFACE ( 'NONE', #84, 6.594488188976378700, 0.2709468503384208600 ) ;
#252 = ORIENTED_EDGE ( 'NONE', *, *, #93, .T. ) ;
ENDSEC;
END-ISO-10303-21;
