ISO-10303-21;
HEADER;
FILE_DESCRIPTION (( 'STEP AP203' ),
    '1' );
FILE_NAME ('--7870338.STEP',
    '2016-06-21T15:02:44',
    ( '' ),
    ( '' ),
    'SwSTEP 2.0',
    'SolidWorks 2015',
    '' );
FILE_SCHEMA (( 'CONFIG_CONTROL_DESIGN' ));
ENDSEC;

DATA;
#1 = FACE_OUTER_BOUND ( 'NONE', #140, .T. ) ;
#2 = DIRECTION ( 'NONE',  ( 0.0000000000000000000, -0.7071067811865484600, 0.7071067811865465700 ) ) ;
#3 = PRODUCT ( '--7870338', '--7870338', '', ( #328 ) ) ;
#4 = AXIS2_PLACEMENT_3D ( 'NONE', #188, #189, #183 ) ;
#5 = FACE_OUTER_BOUND ( 'NONE', #26, .T. ) ;
#6 = VERTEX_POINT ( 'NONE', #276 ) ;
#7 = CYLINDRICAL_SURFACE ( 'NONE', #285, 1.240157480314960600 ) ;
#8 = FACE_OUTER_BOUND ( 'NONE', #405, .T. ) ;
#9 = ORIENTED_EDGE ( 'NONE', *, *, #16, .F. ) ;
#10 = AXIS2_PLACEMENT_3D ( 'NONE', #242, #240, #241 ) ;
#11 = EDGE_CURVE ( 'NONE', #48, #48, #42, .T. ) ;
#12 = EDGE_LOOP ( 'NONE', ( #357 ) ) ;
#13 = FACE_OUTER_BOUND ( 'NONE', #310, .T. ) ;
#14 = ORIENTED_EDGE ( 'NONE', *, *, #102, .F. ) ;
#15 = ORIENTED_EDGE ( 'NONE', *, *, #272, .F. ) ;
#16 = EDGE_CURVE ( 'NONE', #90, #90, #346, .T. ) ;
#17 = ORIENTED_EDGE ( 'NONE', *, *, #147, .T. ) ;
#18 = EDGE_LOOP ( 'NONE', ( #265 ) ) ;
#19 = CARTESIAN_POINT ( 'NONE',  ( 0.0000000000000000000, 5.175087486274177800, 2.143591423282056800 ) ) ;
#20 = PLANE ( 'NONE',  #164 ) ;
#21 = DIRECTION ( 'NONE',  ( 0.0000000000000000000, -1.000000000000000000, 0.0000000000000000000 ) ) ;
#22 = CYLINDRICAL_SURFACE ( 'NONE', #381, 1.771653543307086100 ) ;
#23 = EDGE_CURVE ( 'NONE', #112, #112, #82, .T. ) ;
#24 = EDGE_LOOP ( 'NONE', ( #267 ) ) ;
#25 = DIRECTION ( 'NONE',  ( -0.0000000000000000000, -1.000000000000000000, -0.0000000000000000000 ) ) ;
#26 = EDGE_LOOP ( 'NONE', ( #14 ) ) ;
#27 = AXIS2_PLACEMENT_3D ( 'NONE', #262, #264, #266 ) ;
#28 = EDGE_LOOP ( 'NONE', ( #9 ) ) ;
#29 = FACE_OUTER_BOUND ( 'NONE', #366, .T. ) ;
#30 = ORIENTED_EDGE ( 'NONE', *, *, #11, .T. ) ;
#31 = EDGE_LOOP ( 'NONE', ( #362 ) ) ;
#32 = CIRCLE ( 'NONE', #235, 1.011811023622047200 ) ;
#33 = VERTEX_POINT ( 'NONE', #296 ) ;
#34 = AXIS2_PLACEMENT_3D ( 'NONE', #39, #385, #269 ) ;
#35 = MANIFOLD_SOLID_BREP ( 'Boss-Extrude2', #226 ) ;
#36 = ORIENTED_EDGE ( 'NONE', *, *, #96, .T. ) ;
#37 = EDGE_LOOP ( 'NONE', ( #63 ) ) ;
#38 = ORIENTED_EDGE ( 'NONE', *, *, #147, .F. ) ;
#39 = CARTESIAN_POINT ( 'NONE',  ( 0.0000000000000000000, 0.0000000000000000000, 0.0000000000000000000 ) ) ;
#40 = DIRECTION ( 'NONE',  ( 0.0000000000000000000, 0.0000000000000000000, -1.000000000000000000 ) ) ;
#41 = CC_DESIGN_PERSON_AND_ORGANIZATION_ASSIGNMENT ( #155, #329, ( #3 ) ) ;
#42 = CIRCLE ( 'NONE', #34, 1.771653543307086400 ) ;
#43 = ORIENTED_EDGE ( 'NONE', *, *, #23, .T. ) ;
#44 = CARTESIAN_POINT ( 'NONE',  ( 0.0000000000000000000, 1.788855375872838300, 0.0000000000000000000 ) ) ;
#45 = DIRECTION ( 'NONE',  ( 0.0000000000000000000, 0.7071067811865465700, 0.7071067811865484600 ) ) ;
#46 = AXIS2_PLACEMENT_3D ( 'NONE', #192, #196, #190 ) ;
#47 = ORIENTED_EDGE ( 'NONE', *, *, #407, .T. ) ;
#48 = VERTEX_POINT ( 'NONE', #291 ) ;
#49 =( GEOMETRIC_REPRESENTATION_CONTEXT ( 3 ) GLOBAL_UNCERTAINTY_ASSIGNED_CONTEXT ( ( #388 ) ) GLOBAL_UNIT_ASSIGNED_CONTEXT ( ( #315, #318, #319 ) ) REPRESENTATION_CONTEXT ( 'NONE', 'WORKASPACE' ) );
#50 = EDGE_LOOP ( 'NONE', ( #389 ) ) ;
#51 = AXIS2_PLACEMENT_3D ( 'NONE', #391, #159, #171 ) ;
#52 = ORIENTED_EDGE ( 'NONE', *, *, #96, .F. ) ;
#53 = ADVANCED_FACE ( 'NONE', ( #365, #13 ), #195, .F. ) ;
#54 = AXIS2_PLACEMENT_3D ( 'NONE', #119, #212, #116 ) ;
#55 = DIRECTION ( 'NONE',  ( 0.0000000000000000000, -0.7071067811865483500, 0.7071067811865466800 ) ) ;
#56 = LOCAL_TIME ( 11, 2, 44.00000000000000000, #382 ) ;
#57 = FACE_BOUND ( 'NONE', #107, .T. ) ;
#58 = MANIFOLD_SOLID_BREP ( 'Sweep4', #392 ) ;
#59 = FACE_OUTER_BOUND ( 'NONE', #152, .T. ) ;
#60 = FACE_OUTER_BOUND ( 'NONE', #31, .T. ) ;
#61 = DIMENSIONAL_EXPONENTS ( 1.000000000000000000, 0.0000000000000000000, 0.0000000000000000000, 0.0000000000000000000, 0.0000000000000000000, 0.0000000000000000000, 0.0000000000000000000 ) ;
#62 = FACE_OUTER_BOUND ( 'NONE', #364, .T. ) ;
#63 = ORIENTED_EDGE ( 'NONE', *, *, #23, .F. ) ;
#64 = CIRCLE ( 'NONE', #313, 1.559055118110236100 ) ;
#65 = EDGE_LOOP ( 'NONE', ( #158 ) ) ;
#66 = DIRECTION ( 'NONE',  ( 0.0000000000000000000, -0.0000000000000000000, 1.000000000000000000 ) ) ;
#67 = ORIENTED_EDGE ( 'NONE', *, *, #272, .T. ) ;
#68 = FACE_OUTER_BOUND ( 'NONE', #410, .T. ) ;
#69 = CIRCLE ( 'NONE', #351, 1.771653543307085900 ) ;
#70 = AXIS2_PLACEMENT_3D ( 'NONE', #314, #323, #327 ) ;
#71 = DATE_AND_TIME ( #145, #157 ) ;
#72 = COORDINATED_UNIVERSAL_TIME_OFFSET ( 5, 0, .BEHIND. ) ;
#73 = SECURITY_CLASSIFICATION ( '', '', #349 ) ;
#74 = EDGE_CURVE ( 'NONE', #6, #6, #356, .T. ) ;
#75 = PERSON_AND_ORGANIZATION ( #128, #174 ) ;
#76 = ORIENTED_EDGE ( 'NONE', *, *, #74, .T. ) ;
#77 = EDGE_CURVE ( 'NONE', #173, #173, #64, .T. ) ;
#78 = FACE_OUTER_BOUND ( 'NONE', #363, .T. ) ;
#79 = ORIENTED_EDGE ( 'NONE', *, *, #220, .T. ) ;
#80 = ORIENTED_EDGE ( 'NONE', *, *, #125, .F. ) ;
#81 = CIRCLE ( 'NONE', #124, 1.240157480314960900 ) ;
#82 = CIRCLE ( 'NONE', #211, 1.011811023622047000 ) ;
#83 = VERTEX_POINT ( 'NONE', #311 ) ;
#84 = APPROVAL_DATE_TIME ( #104, #387 ) ;
#85 = APPROVAL ( #353, 'UNSPECIFIED' ) ;
#86 = ADVANCED_FACE ( 'NONE', ( #98, #288 ), #20, .T. ) ;
#87 = CC_DESIGN_DATE_AND_TIME_ASSIGNMENT ( #322, #352, ( #73 ) ) ;
#88 = ADVANCED_FACE ( 'NONE', ( #122, #386 ), #414, .T. ) ;
#89 = VERTEX_POINT ( 'NONE', #309 ) ;
#90 = VERTEX_POINT ( 'NONE', #289 ) ;
#91 = VERTEX_POINT ( 'NONE', #305 ) ;
#92 = EDGE_LOOP ( 'NONE', ( #76 ) ) ;
#93 = CC_DESIGN_PERSON_AND_ORGANIZATION_ASSIGNMENT ( #75, #343, ( #151 ) ) ;
#94 = VERTEX_POINT ( 'NONE', #312 ) ;
#95 = VERTEX_POINT ( 'NONE', #300 ) ;
#96 = EDGE_CURVE ( 'NONE', #33, #33, #69, .T. ) ;
#97 = DIRECTION ( 'NONE',  ( 0.0000000000000000000, 0.0000000000000000000, 1.000000000000000000 ) ) ;
#98 = FACE_BOUND ( 'NONE', #253, .T. ) ;
#99 = SHAPE_DEFINITION_REPRESENTATION ( #161, #259 ) ;
#100 = DIRECTION ( 'NONE',  ( 0.0000000000000000000, 0.0000000000000000000, 1.000000000000000000 ) ) ;
#101 = DIRECTION ( 'NONE',  ( 0.0000000000000000000, 1.000000000000000000, 0.0000000000000000000 ) ) ;
#102 = EDGE_CURVE ( 'NONE', #368, #368, #32, .T. ) ;
#103 = CALENDAR_DATE ( 2016, 21, 6 ) ;
#104 = DATE_AND_TIME ( #277, #184 ) ;
#105 = EDGE_LOOP ( 'NONE', ( #295 ) ) ;
#106 = FACE_OUTER_BOUND ( 'NONE', #398, .T. ) ;
#107 = EDGE_LOOP ( 'NONE', ( #268 ) ) ;
#108 = CC_DESIGN_DATE_AND_TIME_ASSIGNMENT ( #383, #339, ( #397 ) ) ;
#109 = EDGE_CURVE ( 'NONE', #244, #244, #396, .T. ) ;
#110 = ORIENTED_EDGE ( 'NONE', *, *, #11, .F. ) ;
#111 = PERSON_AND_ORGANIZATION ( #128, #174 ) ;
#112 = VERTEX_POINT ( 'NONE', #292 ) ;
#113 = VERTEX_POINT ( 'NONE', #307 ) ;
#114 = AXIS2_PLACEMENT_3D ( 'NONE', #228, #217, #227 ) ;
#115 = CARTESIAN_POINT ( 'NONE',  ( 0.0000000000000000000, 5.453475982804315300, 2.421979919812193400 ) ) ;
#116 = DIRECTION ( 'NONE',  ( 0.0000000000000000000, 0.0000000000000000000, 1.000000000000000000 ) ) ;
#117 = LOCAL_TIME ( 11, 2, 44.00000000000000000, #137 ) ;
#118 = FACE_OUTER_BOUND ( 'NONE', #92, .T. ) ;
#119 = CARTESIAN_POINT ( 'NONE',  ( 0.0000000000000000000, 0.0000000000000000000, 0.0000000000000000000 ) ) ;
#120 = DIRECTION ( 'NONE',  ( 0.0000000000000000000, 0.7071067811865465700, 0.7071067811865484600 ) ) ;
#121 = CARTESIAN_POINT ( 'NONE',  ( 0.0000000000000000000, 1.788855375872838300, 4.348985126803069900E-017 ) ) ;
#122 = FACE_OUTER_BOUND ( 'NONE', #24, .T. ) ;
#123 = PERSON_AND_ORGANIZATION ( #128, #174 ) ;
#124 = AXIS2_PLACEMENT_3D ( 'NONE', #115, #390, #55 ) ;
#125 = EDGE_CURVE ( 'NONE', #95, #95, #81, .T. ) ;
#126 = FACE_OUTER_BOUND ( 'NONE', #358, .T. ) ;
#127 = FACE_OUTER_BOUND ( 'NONE', #378, .T. ) ;
#128 = PERSON ( 'UNSPECIFIED', 'UNSPECIFIED', 'UNSPECIFIED', ('UNSPECIFIED'), ('UNSPECIFIED'), ('UNSPECIFIED') ) ;
#129 = AXIS2_PLACEMENT_3D ( 'NONE', #166, #180, #181 ) ;
#130 = APPROVAL_PERSON_ORGANIZATION ( #168, #85, #354 ) ;
#131 = APPROVAL_DATE_TIME ( #71, #85 ) ;
#132 = CC_DESIGN_APPROVAL ( #361, ( #397 ) ) ;
#133 = AXIS2_PLACEMENT_3D ( 'NONE', #247, #248, #249 ) ;
#134 = EDGE_LOOP ( 'NONE', ( #408 ) ) ;
#135 = ORIENTED_EDGE ( 'NONE', *, *, #380, .F. ) ;
#136 = DIRECTION ( 'NONE',  ( 0.0000000000000000000, -0.7071067811865483500, 0.7071067811865466800 ) ) ;
#137 = COORDINATED_UNIVERSAL_TIME_OFFSET ( 5, 0, .BEHIND. ) ;
#138 = DIRECTION ( 'NONE',  ( 0.0000000000000000000, 1.000000000000000000, 0.0000000000000000000 ) ) ;
#139 = AXIS2_PLACEMENT_3D ( 'NONE', #282, #283, #284 ) ;
#140 = EDGE_LOOP ( 'NONE', ( #43 ) ) ;
#141 = CC_DESIGN_PERSON_AND_ORGANIZATION_ASSIGNMENT ( #111, #345, ( #151 ) ) ;
#142 = DIRECTION ( 'NONE',  ( 0.0000000000000000000, 0.7071067811865465700, 0.7071067811865484600 ) ) ;
#143 = COORDINATED_UNIVERSAL_TIME_OFFSET ( 5, 0, .BEHIND. ) ;
#144 = EDGE_LOOP ( 'NONE', ( #163 ) ) ;
#145 = CALENDAR_DATE ( 2016, 21, 6 ) ;
#146 = CARTESIAN_POINT ( 'NONE',  ( 0.0000000000000000000, 3.910175719432484000, 0.8786796564403602800 ) ) ;
#147 = EDGE_CURVE ( 'NONE', #275, #275, #401, .T. ) ;
#148 = CIRCLE ( 'NONE', #326, 1.240157480314960600 ) ;
#149 = CYLINDRICAL_SURFACE ( 'NONE', #114, 1.240157480314960600 ) ;
#150 = FACE_OUTER_BOUND ( 'NONE', #308, .T. ) ;
#151 = PRODUCT_DEFINITION_FORMATION_WITH_SPECIFIED_SOURCE ( 'ANY', '', #3, .NOT_KNOWN. ) ;
#152 = EDGE_LOOP ( 'NONE', ( #47 ) ) ;
#153 = CALENDAR_DATE ( 2016, 21, 6 ) ;
#154 = COORDINATED_UNIVERSAL_TIME_OFFSET ( 5, 0, .BEHIND. ) ;
#155 = PERSON_AND_ORGANIZATION ( #128, #174 ) ;
#156 = AXIS2_PLACEMENT_3D ( 'NONE', #348, #200, #169 ) ;
#157 = LOCAL_TIME ( 11, 2, 44.00000000000000000, #72 ) ;
#158 = ORIENTED_EDGE ( 'NONE', *, *, #77, .F. ) ;
#159 = DIRECTION ( 'NONE',  ( 0.0000000000000000000, 0.7071067811865465700, 0.7071067811865484600 ) ) ;
#160 = TOROIDAL_SURFACE ( 'NONE', #176, 3.000000000000000400, 1.559055118110236100 ) ;
#161 = PRODUCT_DEFINITION_SHAPE ( 'NONE', 'NONE',  #397 ) ;
#162 = CARTESIAN_POINT ( 'NONE',  ( 0.0000000000000000000, -0.3937007874015748300, 0.0000000000000000000 ) ) ;
#163 = ORIENTED_EDGE ( 'NONE', *, *, #16, .T. ) ;
#164 = AXIS2_PLACEMENT_3D ( 'NONE', #19, #45, #2 ) ;
#165 = CARTESIAN_POINT ( 'NONE',  ( 0.0000000000000000000, 5.175087486274177800, 2.143591423282056800 ) ) ;
#166 = CARTESIAN_POINT ( 'NONE',  ( 0.0000000000000000000, 1.788855375872838300, 3.000000000000000400 ) ) ;
#167 = FACE_OUTER_BOUND ( 'NONE', #12, .T. ) ;
#168 = PERSON_AND_ORGANIZATION ( #128, #174 ) ;
#169 = DIRECTION ( 'NONE',  ( 0.0000000000000000000, -0.7071067811865484600, 0.7071067811865468000 ) ) ;
#170 = DIRECTION ( 'NONE',  ( 0.0000000000000000000, 1.000000000000000000, 0.0000000000000000000 ) ) ;
#171 = DIRECTION ( 'NONE',  ( 0.0000000000000000000, -0.7071067811865484600, 0.7071067811865465700 ) ) ;
#172 = EDGE_CURVE ( 'NONE', #325, #325, #379, .T. ) ;
#173 = VERTEX_POINT ( 'NONE', #294 ) ;
#174 = ORGANIZATION ( 'UNSPECIFIED', 'UNSPECIFIED', '' ) ;
#175 = PERSON_AND_ORGANIZATION ( #128, #174 ) ;
#176 = AXIS2_PLACEMENT_3D ( 'NONE', #258, #250, #274 ) ;
#177 = ADVANCED_FACE ( 'NONE', ( #59, #413 ), #331, .T. ) ;
#178 = AXIS2_PLACEMENT_3D ( 'NONE', #162, #21, #394 ) ;
#179 = ADVANCED_FACE ( 'NONE', ( #5, #1 ), #399, .F. ) ;
#180 = DIRECTION ( 'NONE',  ( 1.000000000000000000, 0.0000000000000000000, -0.0000000000000000000 ) ) ;
#181 = DIRECTION ( 'NONE',  ( 0.0000000000000000000, 0.0000000000000000000, -1.000000000000000000 ) ) ;
#182 = APPROVAL_PERSON_ORGANIZATION ( #123, #387, #342 ) ;
#183 = DIRECTION ( 'NONE',  ( 0.0000000000000000000, 0.0000000000000000000, -1.000000000000000000 ) ) ;
#184 = LOCAL_TIME ( 11, 2, 44.00000000000000000, #143 ) ;
#185 = DIRECTION ( 'NONE',  ( 1.000000000000000000, 0.0000000000000000000, -0.0000000000000000000 ) ) ;
#186 = ADVANCED_FACE ( 'NONE', ( #245, #333 ), #324, .F. ) ;
#187 = DIRECTION ( 'NONE',  ( 0.0000000000000000000, 0.0000000000000000000, -1.000000000000000000 ) ) ;
#188 = CARTESIAN_POINT ( 'NONE',  ( 0.0000000000000000000, 1.788855375872838300, 4.348985126803069900E-017 ) ) ;
#189 = DIRECTION ( 'NONE',  ( -0.0000000000000000000, -1.000000000000000000, -0.0000000000000000000 ) ) ;
#190 = DIRECTION ( 'NONE',  ( 0.0000000000000000000, -0.7071067811865482400, 0.7071067811865471300 ) ) ;
#191 = AXIS2_PLACEMENT_3D ( 'NONE', #218, #213, #225 ) ;
#192 = CARTESIAN_POINT ( 'NONE',  ( 0.0000000000000000000, 3.910175719432484000, 0.8786796564403602800 ) ) ;
#193 = DATE_AND_TIME ( #153, #117 ) ;
#194 = LOCAL_TIME ( 11, 2, 44.00000000000000000, #154 ) ;
#195 = PLANE ( 'NONE',  #375 ) ;
#196 = DIRECTION ( 'NONE',  ( 0.0000000000000000000, 0.7071067811865469100, 0.7071067811865482400 ) ) ;
#197 = ADVANCED_FACE ( 'NONE', ( #355, #118 ), #316, .F. ) ;
#198 = DIRECTION ( 'NONE',  ( 0.0000000000000000000, 0.0000000000000000000, -1.000000000000000000 ) ) ;
#199 = CC_DESIGN_PERSON_AND_ORGANIZATION_ASSIGNMENT ( #175, #337, ( #397 ) ) ;
#200 = DIRECTION ( 'NONE',  ( 0.0000000000000000000, 0.7071067811865468000, 0.7071067811865483500 ) ) ;
#201 = CARTESIAN_POINT ( 'NONE',  ( 0.0000000000000000000, 1.788855375872838300, 0.0000000000000000000 ) ) ;
#202 = CARTESIAN_POINT ( 'NONE',  ( 0.0000000000000000000, 1.788855375872838300, 3.000000000000000400 ) ) ;
#203 = DIRECTION ( 'NONE',  ( -0.0000000000000000000, -1.000000000000000000, -0.0000000000000000000 ) ) ;
#204 = ADVANCED_FACE ( 'NONE', ( #344, #317 ), #376, .F. ) ;
#205 = CIRCLE ( 'NONE', #302, 1.771653543307085900 ) ;
#206 = DIRECTION ( 'NONE',  ( 0.0000000000000000000, -0.7071067811865481300, 0.7071067811865468000 ) ) ;
#207 = APPROVAL_DATE_TIME ( #193, #361 ) ;
#208 = CARTESIAN_POINT ( 'NONE',  ( 0.0000000000000000000, 3.910175719432484000, 0.8786796564403602800 ) ) ;
#209 = APPROVAL_PERSON_ORGANIZATION ( #215, #361, #335 ) ;
#210 = DIRECTION ( 'NONE',  ( 0.0000000000000000000, 0.7071067811865469100, 0.7071067811865482400 ) ) ;
#211 = AXIS2_PLACEMENT_3D ( 'NONE', #146, #142, #136 ) ;
#212 = DIRECTION ( 'NONE',  ( 0.0000000000000000000, 1.000000000000000000, 0.0000000000000000000 ) ) ;
#213 = DIRECTION ( 'NONE',  ( 1.000000000000000000, 0.0000000000000000000, -0.0000000000000000000 ) ) ;
#214 = CC_DESIGN_APPROVAL ( #387, ( #151 ) ) ;
#215 = PERSON_AND_ORGANIZATION ( #128, #174 ) ;
#216 = CIRCLE ( 'NONE', #27, 1.559055118110236100 ) ;
#217 = DIRECTION ( 'NONE',  ( -0.0000000000000000000, -1.000000000000000000, -0.0000000000000000000 ) ) ;
#218 = CARTESIAN_POINT ( 'NONE',  ( 0.0000000000000000000, 1.788855375872838300, 3.000000000000000400 ) ) ;
#219 = ADVANCED_FACE ( 'NONE', ( #29, #150 ), #7, .T. ) ;
#220 = EDGE_CURVE ( 'NONE', #91, #91, #205, .T. ) ;
#221 = CARTESIAN_POINT ( 'NONE',  ( 0.0000000000000000000, 3.910175719432484000, 0.8786796564403602800 ) ) ;
#222 = DIRECTION ( 'NONE',  ( 0.0000000000000000000, 0.7071067811865465700, 0.7071067811865484600 ) ) ;
#223 = DIRECTION ( 'NONE',  ( 0.0000000000000000000, -0.7071067811865483500, 0.7071067811865466800 ) ) ;
#224 = CYLINDRICAL_SURFACE ( 'NONE', #10, 1.559055118110236100 ) ;
#225 = DIRECTION ( 'NONE',  ( 0.0000000000000000000, 0.0000000000000000000, -1.000000000000000000 ) ) ;
#226 = CLOSED_SHELL ( 'NONE', ( #219, #197, #252, #179, #186, #287, #393, #347 ) ) ;
#227 = DIRECTION ( 'NONE',  ( 0.0000000000000000000, 0.0000000000000000000, -1.000000000000000000 ) ) ;
#228 = CARTESIAN_POINT ( 'NONE',  ( 0.0000000000000000000, 1.788855375872838300, 4.348985126803069900E-017 ) ) ;
#229 = DIRECTION ( 'NONE',  ( 0.0000000000000000000, -1.000000000000000000, 0.0000000000000000000 ) ) ;
#230 = CARTESIAN_POINT ( 'NONE',  ( 0.0000000000000000000, 1.788855375872838300, 4.348985126803069900E-017 ) ) ;
#231 = DIRECTION ( 'NONE',  ( 0.0000000000000000000, 1.000000000000000000, 0.0000000000000000000 ) ) ;
#232 = FACE_OUTER_BOUND ( 'NONE', #255, .T. ) ;
#233 = DIRECTION ( 'NONE',  ( 0.0000000000000000000, 0.0000000000000000000, 1.000000000000000000 ) ) ;
#234 = CIRCLE ( 'NONE', #133, 1.559055118110235900 ) ;
#235 = AXIS2_PLACEMENT_3D ( 'NONE', #121, #170, #100 ) ;
#236 = CARTESIAN_POINT ( 'NONE',  ( 0.0000000000000000000, -0.3937007874015748300, 0.0000000000000000000 ) ) ;
#237 = PLANE ( 'NONE',  #263 ) ;
#238 = DIRECTION ( 'NONE',  ( 0.0000000000000000000, -0.0000000000000000000, -1.000000000000000000 ) ) ;
#239 = AXIS2_PLACEMENT_3D ( 'NONE', #44, #25, #40 ) ;
#240 = DIRECTION ( 'NONE',  ( 0.0000000000000000000, 0.7071067811865469100, 0.7071067811865482400 ) ) ;
#241 = DIRECTION ( 'NONE',  ( 0.0000000000000000000, -0.7071067811865480200, 0.7071067811865470200 ) ) ;
#242 = CARTESIAN_POINT ( 'NONE',  ( 0.0000000000000000000, 3.910175719432484000, 0.8786796564403602800 ) ) ;
#243 = ORIENTED_EDGE ( 'NONE', *, *, #380, .T. ) ;
#244 = VERTEX_POINT ( 'NONE', #299 ) ;
#245 = FACE_OUTER_BOUND ( 'NONE', #50, .T. ) ;
#246 = CARTESIAN_POINT ( 'NONE',  ( 0.0000000000000000000, -0.3937007874015748300, 0.0000000000000000000 ) ) ;
#247 = CARTESIAN_POINT ( 'NONE',  ( 0.0000000000000000000, 5.175087486274177800, 2.143591423282056800 ) ) ;
#248 = DIRECTION ( 'NONE',  ( 0.0000000000000000000, 0.7071067811865465700, 0.7071067811865484600 ) ) ;
#249 = DIRECTION ( 'NONE',  ( 0.0000000000000000000, -0.7071067811865485700, 0.7071067811865465700 ) ) ;
#250 = DIRECTION ( 'NONE',  ( 1.000000000000000000, 0.0000000000000000000, -0.0000000000000000000 ) ) ;
#251 = EDGE_LOOP ( 'NONE', ( #135 ) ) ;
#252 = ADVANCED_FACE ( 'NONE', ( #126, #127 ), #360, .T. ) ;
#253 = EDGE_LOOP ( 'NONE', ( #406 ) ) ;
#254 = CARTESIAN_POINT ( 'NONE',  ( 0.0000000000000000000, 5.453475982804315300, 2.421979919812193400 ) ) ;
#255 = EDGE_LOOP ( 'NONE', ( #52 ) ) ;
#256 = FACE_BOUND ( 'NONE', #370, .T. ) ;
#257 = AXIS2_PLACEMENT_3D ( 'NONE', #254, #270, #271 ) ;
#258 = CARTESIAN_POINT ( 'NONE',  ( 0.0000000000000000000, 1.788855375872838300, 3.000000000000000400 ) ) ;
#259 = ADVANCED_BREP_SHAPE_REPRESENTATION ( '--7870338', ( #58, #35, #70 ), #49 ) ;
#260 = DIRECTION ( 'NONE',  ( 0.0000000000000000000, -0.7071067811865483500, 0.7071067811865466800 ) ) ;
#261 = PLANE ( 'NONE',  #257 ) ;
#262 = CARTESIAN_POINT ( 'NONE',  ( 0.0000000000000000000, 3.910175719432484000, 0.8786796564403602800 ) ) ;
#263 = AXIS2_PLACEMENT_3D ( 'NONE', #236, #229, #238 ) ;
#264 = DIRECTION ( 'NONE',  ( 0.0000000000000000000, 0.7071067811865465700, 0.7071067811865484600 ) ) ;
#265 = ORIENTED_EDGE ( 'NONE', *, *, #109, .T. ) ;
#266 = DIRECTION ( 'NONE',  ( 0.0000000000000000000, -0.7071067811865484600, 0.7071067811865465700 ) ) ;
#267 = ORIENTED_EDGE ( 'NONE', *, *, #407, .F. ) ;
#268 = ORIENTED_EDGE ( 'NONE', *, *, #74, .F. ) ;
#269 = DIRECTION ( 'NONE',  ( 0.0000000000000000000, 0.0000000000000000000, 1.000000000000000000 ) ) ;
#270 = DIRECTION ( 'NONE',  ( 0.0000000000000000000, 0.7071067811865468000, 0.7071067811865483500 ) ) ;
#271 = DIRECTION ( 'NONE',  ( 0.0000000000000000000, -0.7071067811865483500, 0.7071067811865468000 ) ) ;
#272 = EDGE_CURVE ( 'NONE', #113, #113, #148, .T. ) ;
#273 = CC_DESIGN_SECURITY_CLASSIFICATION ( #73, ( #151 ) ) ;
#274 = DIRECTION ( 'NONE',  ( 0.0000000000000000000, 0.0000000000000000000, -1.000000000000000000 ) ) ;
#275 = VERTEX_POINT ( 'NONE', #303 ) ;
#276 = CARTESIAN_POINT ( 'NONE',  ( 0.0000000000000000000, 4.738017546721861700, 3.137438355894644400 ) ) ;
#277 = CALENDAR_DATE ( 2016, 21, 6 ) ;
#278 = DIRECTION ( 'NONE',  ( 0.0000000000000000000, -0.7071067811865482400, 0.7071067811865469100 ) ) ;
#279 = CARTESIAN_POINT ( 'NONE',  ( 0.0000000000000000000, 3.910175719432484000, 0.8786796564403602800 ) ) ;
#280 = DIRECTION ( 'NONE',  ( 0.0000000000000000000, 0.7071067811865469100, 0.7071067811865482400 ) ) ;
#281 = PRODUCT_RELATED_PRODUCT_CATEGORY ( 'detail', '', ( #3 ) ) ;
#282 = CARTESIAN_POINT ( 'NONE',  ( 0.0000000000000000000, 1.788855375872838300, 0.0000000000000000000 ) ) ;
#283 = DIRECTION ( 'NONE',  ( 0.0000000000000000000, 1.000000000000000000, 0.0000000000000000000 ) ) ;
#284 = DIRECTION ( 'NONE',  ( 0.0000000000000000000, 0.0000000000000000000, 1.000000000000000000 ) ) ;
#285 = AXIS2_PLACEMENT_3D ( 'NONE', #208, #210, #206 ) ;
#286 = FACE_OUTER_BOUND ( 'NONE', #65, .T. ) ;
#287 = ADVANCED_FACE ( 'NONE', ( #8, #68 ), #149, .T. ) ;
#288 = FACE_OUTER_BOUND ( 'NONE', #372, .T. ) ;
#289 = CARTESIAN_POINT ( 'NONE',  ( 0.0000000000000000000, 0.0000000000000000000, 1.559055118110236100 ) ) ;
#290 = FACE_OUTER_BOUND ( 'NONE', #251, .T. ) ;
#291 = CARTESIAN_POINT ( 'NONE',  ( 0.0000000000000000000, 0.0000000000000000000, 1.771653543307086400 ) ) ;
#292 = CARTESIAN_POINT ( 'NONE',  ( 0.0000000000000000000, 3.194717283350031700, 1.594138092522811000 ) ) ;
#293 =( LENGTH_UNIT ( ) NAMED_UNIT ( * ) SI_UNIT ( $, .METRE. ) );
#294 = CARTESIAN_POINT ( 'NONE',  ( 0.0000000000000000000, 1.788855375872838300, 1.559055118110236100 ) ) ;
#295 = ORIENTED_EDGE ( 'NONE', *, *, #220, .F. ) ;
#296 = CARTESIAN_POINT ( 'NONE',  ( 0.0000000000000000000, 3.922339251888561100, 3.396339657667670300 ) ) ;
#297 = ORIENTED_EDGE ( 'NONE', *, *, #109, .F. ) ;
#298 = CARTESIAN_POINT ( 'NONE',  ( 0.0000000000000000000, 1.788855375872838300, 1.011811023622047200 ) ) ;
#299 = CARTESIAN_POINT ( 'NONE',  ( 0.0000000000000000000, -0.3937007874015748300, -1.011811023622047000 ) ) ;
#300 = CARTESIAN_POINT ( 'NONE',  ( 0.0000000000000000000, 4.576552218734383000, 3.298903683882123500 ) ) ;
#301 = DIRECTION ( 'NONE',  ( 0.0000000000000000000, -1.000000000000000000, 0.0000000000000000000 ) ) ;
#302 = AXIS2_PLACEMENT_3D ( 'NONE', #221, #222, #223 ) ;
#303 = CARTESIAN_POINT ( 'NONE',  ( 0.0000000000000000000, 3.033251955362552100, 1.755603420510290200 ) ) ;
#304 = CARTESIAN_POINT ( 'NONE',  ( 0.0000000000000000000, -0.3937007874015748300, -1.240157480314960600 ) ) ;
#305 = CARTESIAN_POINT ( 'NONE',  ( 0.0000000000000000000, 2.657427485046867300, 2.131427890825974300 ) ) ;
#306 = CIRCLE ( 'NONE', #139, 1.771653543307086400 ) ;
#307 = CARTESIAN_POINT ( 'NONE',  ( 0.0000000000000000000, 1.788855375872838300, 1.240157480314960600 ) ) ;
#308 = EDGE_LOOP ( 'NONE', ( #80 ) ) ;
#309 = CARTESIAN_POINT ( 'NONE',  ( 0.0000000000000000000, 4.072669040014835300, 3.246009869541396600 ) ) ;
#310 = EDGE_LOOP ( 'NONE', ( #110 ) ) ;
#311 = CARTESIAN_POINT ( 'NONE',  ( 0.0000000000000000000, 2.807757273173141100, 1.981098102699700500 ) ) ;
#312 = CARTESIAN_POINT ( 'NONE',  ( 0.0000000000000000000, 1.788855375872838300, 1.771653543307086400 ) ) ;
#313 = AXIS2_PLACEMENT_3D ( 'NONE', #395, #101, #97 ) ;
#314 = CARTESIAN_POINT ( 'NONE',  ( 0.0000000000000000000, 0.0000000000000000000, 0.0000000000000000000 ) ) ;
#315 =( CONVERSION_BASED_UNIT ( 'INCH', #374 ) LENGTH_UNIT ( ) NAMED_UNIT ( #61 ) );
#316 = CYLINDRICAL_SURFACE ( 'NONE', #46, 1.011811023622047200 ) ;
#317 = FACE_OUTER_BOUND ( 'NONE', #28, .T. ) ;
#318 =( NAMED_UNIT ( * ) PLANE_ANGLE_UNIT ( ) SI_UNIT ( $, .RADIAN. ) );
#319 =( NAMED_UNIT ( * ) SI_UNIT ( $, .STERADIAN. ) SOLID_ANGLE_UNIT ( ) );
#320 = APPLICATION_PROTOCOL_DEFINITION ( 'international standard', 'config_control_design', 1994, #321 ) ;
#321 = APPLICATION_CONTEXT ( 'configuration controlled 3d designs of mechanical parts and assemblies' ) ;
#322 = DATE_AND_TIME ( #103, #56 ) ;
#323 = DIRECTION ( 'NONE',  ( 0.0000000000000000000, 0.0000000000000000000, 1.000000000000000000 ) ) ;
#324 = CYLINDRICAL_SURFACE ( 'NONE', #4, 1.011811023622047200 ) ;
#325 = VERTEX_POINT ( 'NONE', #304 ) ;
#326 = AXIS2_PLACEMENT_3D ( 'NONE', #230, #231, #233 ) ;
#327 = DIRECTION ( 'NONE',  ( 1.000000000000000000, 0.0000000000000000000, 0.0000000000000000000 ) ) ;
#328 = MECHANICAL_CONTEXT ( 'NONE', #321, 'mechanical' ) ;
#329 = PERSON_AND_ORGANIZATION_ROLE ( 'design_owner' ) ;
#330 = APPLICATION_CONTEXT ( 'configuration controlled 3d designs of mechanical parts and assemblies' ) ;
#331 = TOROIDAL_SURFACE ( 'NONE', #129, 3.000000000000000400, 1.771653543307086400 ) ;
#332 = APPLICATION_PROTOCOL_DEFINITION ( 'international standard', 'config_control_design', 1994, #330 ) ;
#333 = FACE_OUTER_BOUND ( 'NONE', #18, .T. ) ;
#334 = APPROVAL_STATUS ( 'not_yet_approved' ) ;
#335 = APPROVAL_ROLE ( '' ) ;
#336 = AXIS2_PLACEMENT_3D ( 'NONE', #201, #203, #198 ) ;
#337 = PERSON_AND_ORGANIZATION_ROLE ( 'creator' ) ;
#338 = CC_DESIGN_PERSON_AND_ORGANIZATION_ASSIGNMENT ( #409, #350, ( #73 ) ) ;
#339 = DATE_TIME_ROLE ( 'creation_date' ) ;
#340 = DESIGN_CONTEXT ( 'detailed design', #330, 'design' ) ;
#341 = APPROVAL_STATUS ( 'not_yet_approved' ) ;
#342 = APPROVAL_ROLE ( '' ) ;
#343 = PERSON_AND_ORGANIZATION_ROLE ( 'creator' ) ;
#344 = FACE_OUTER_BOUND ( 'NONE', #134, .T. ) ;
#345 = PERSON_AND_ORGANIZATION_ROLE ( 'design_supplier' ) ;
#346 = CIRCLE ( 'NONE', #54, 1.559055118110236100 ) ;
#347 = ADVANCED_FACE ( 'NONE', ( #60, #256 ), #237, .T. ) ;
#348 = CARTESIAN_POINT ( 'NONE',  ( 0.0000000000000000000, 5.453475982804315300, 2.421979919812193400 ) ) ;
#349 = SECURITY_CLASSIFICATION_LEVEL ( 'unclassified' ) ;
#350 = PERSON_AND_ORGANIZATION_ROLE ( 'classification_officer' ) ;
#351 = AXIS2_PLACEMENT_3D ( 'NONE', #165, #120, #260 ) ;
#352 = DATE_TIME_ROLE ( 'classification_date' ) ;
#353 = APPROVAL_STATUS ( 'not_yet_approved' ) ;
#354 = APPROVAL_ROLE ( '' ) ;
#355 = FACE_OUTER_BOUND ( 'NONE', #37, .T. ) ;
#356 = CIRCLE ( 'NONE', #156, 1.011811023622047700 ) ;
#357 = ORIENTED_EDGE ( 'NONE', *, *, #125, .T. ) ;
#358 = EDGE_LOOP ( 'NONE', ( #67 ) ) ;
#359 = DIRECTION ( 'NONE',  ( 0.0000000000000000000, 0.0000000000000000000, -1.000000000000000000 ) ) ;
#360 = TOROIDAL_SURFACE ( 'NONE', #191, 3.000000000000000400, 1.240157480314960600 ) ;
#361 = APPROVAL ( #334, 'UNSPECIFIED' ) ;
#362 = ORIENTED_EDGE ( 'NONE', *, *, #172, .T. ) ;
#363 = EDGE_LOOP ( 'NONE', ( #79 ) ) ;
#364 = EDGE_LOOP ( 'NONE', ( #402 ) ) ;
#365 = FACE_BOUND ( 'NONE', #144, .T. ) ;
#366 = EDGE_LOOP ( 'NONE', ( #17 ) ) ;
#367 = ORIENTED_EDGE ( 'NONE', *, *, #172, .F. ) ;
#368 = VERTEX_POINT ( 'NONE', #298 ) ;
#369 = AXIS2_PLACEMENT_3D ( 'NONE', #202, #185, #187 ) ;
#370 = EDGE_LOOP ( 'NONE', ( #297 ) ) ;
#371 = EDGE_CURVE ( 'NONE', #89, #89, #234, .T. ) ;
#372 = EDGE_LOOP ( 'NONE', ( #36 ) ) ;
#373 = ADVANCED_FACE ( 'NONE', ( #290, #62 ), #224, .F. ) ;
#374 = LENGTH_MEASURE_WITH_UNIT ( LENGTH_MEASURE( 0.02539999999999999900 ), #293 );
#375 = AXIS2_PLACEMENT_3D ( 'NONE', #403, #138, #66 ) ;
#376 = CYLINDRICAL_SURFACE ( 'NONE', #336, 1.559055118110236100 ) ;
#377 = EDGE_LOOP ( 'NONE', ( #30 ) ) ;
#378 = EDGE_LOOP ( 'NONE', ( #38 ) ) ;
#379 = CIRCLE ( 'NONE', #404, 1.240157480314960600 ) ;
#380 = EDGE_CURVE ( 'NONE', #83, #83, #216, .T. ) ;
#381 = AXIS2_PLACEMENT_3D ( 'NONE', #279, #280, #278 ) ;
#382 = COORDINATED_UNIVERSAL_TIME_OFFSET ( 5, 0, .BEHIND. ) ;
#383 = DATE_AND_TIME ( #384, #194 ) ;
#384 = CALENDAR_DATE ( 2016, 21, 6 ) ;
#385 = DIRECTION ( 'NONE',  ( 0.0000000000000000000, 1.000000000000000000, 0.0000000000000000000 ) ) ;
#386 = FACE_OUTER_BOUND ( 'NONE', #377, .T. ) ;
#387 = APPROVAL ( #341, 'UNSPECIFIED' ) ;
#388 = UNCERTAINTY_MEASURE_WITH_UNIT (LENGTH_MEASURE( 1.000000000000000100E-005 ), #315, 'distance_accuracy_value', 'NONE');
#389 = ORIENTED_EDGE ( 'NONE', *, *, #102, .T. ) ;
#390 = DIRECTION ( 'NONE',  ( 0.0000000000000000000, 0.7071067811865468000, 0.7071067811865483500 ) ) ;
#391 = CARTESIAN_POINT ( 'NONE',  ( 0.0000000000000000000, 3.910175719432484000, 0.8786796564403602800 ) ) ;
#392 = CLOSED_SHELL ( 'NONE', ( #411, #373, #177, #400, #204, #88, #86, #53 ) ) ;
#393 = ADVANCED_FACE ( 'NONE', ( #167, #57 ), #261, .T. ) ;
#394 = DIRECTION ( 'NONE',  ( 0.0000000000000000000, 0.0000000000000000000, -1.000000000000000000 ) ) ;
#395 = CARTESIAN_POINT ( 'NONE',  ( 0.0000000000000000000, 1.788855375872838300, 0.0000000000000000000 ) ) ;
#396 = CIRCLE ( 'NONE', #178, 1.011811023622047000 ) ;
#397 = PRODUCT_DEFINITION ( 'UNKNOWN', '', #151, #340 ) ;
#398 = EDGE_LOOP ( 'NONE', ( #243 ) ) ;
#399 = TOROIDAL_SURFACE ( 'NONE', #369, 3.000000000000000400, 1.011811023622047200 ) ;
#400 = ADVANCED_FACE ( 'NONE', ( #286, #106 ), #160, .F. ) ;
#401 = CIRCLE ( 'NONE', #51, 1.240157480314960600 ) ;
#402 = ORIENTED_EDGE ( 'NONE', *, *, #371, .T. ) ;
#403 = CARTESIAN_POINT ( 'NONE',  ( 0.0000000000000000000, 0.0000000000000000000, 0.0000000000000000000 ) ) ;
#404 = AXIS2_PLACEMENT_3D ( 'NONE', #246, #301, #359 ) ;
#405 = EDGE_LOOP ( 'NONE', ( #15 ) ) ;
#406 = ORIENTED_EDGE ( 'NONE', *, *, #371, .F. ) ;
#407 = EDGE_CURVE ( 'NONE', #94, #94, #306, .T. ) ;
#408 = ORIENTED_EDGE ( 'NONE', *, *, #77, .T. ) ;
#409 = PERSON_AND_ORGANIZATION ( #128, #174 ) ;
#410 = EDGE_LOOP ( 'NONE', ( #367 ) ) ;
#411 = ADVANCED_FACE ( 'NONE', ( #78, #232 ), #22, .T. ) ;
#412 = CC_DESIGN_APPROVAL ( #85, ( #73 ) ) ;
#413 = FACE_OUTER_BOUND ( 'NONE', #105, .T. ) ;
#414 = CYLINDRICAL_SURFACE ( 'NONE', #239, 1.771653543307086400 ) ;
ENDSEC;
END-ISO-10303-21;
