ISO-10303-21;
HEADER;
FILE_DESCRIPTION( ( '' ), '1' );
FILE_NAME( 'R:/Engineering/Parts CD files/Industrial & Dual Contained/Halar/EXT LEG 45/AGRU_40060005021_ECTFE natur_Winkel 45°_50X3,0  SDR21  ISO S-10_110.stp', '2011-12-29T16:06:06', ( '' ), ( '' ), ' ', ' ', ' ' );
FILE_SCHEMA( ( 'CONFIG_CONTROL_DESIGN' ) );
ENDSEC;
DATA;
#1 = DESIGN_CONTEXT( '', #27, 'design' );
#2 = APPLICATION_PROTOCOL_DEFINITION( 'INTERNATIONAL STANDARD', 'config_control_design', 1994, #27 );
#3 = PRODUCT_CATEGORY_RELATIONSHIP( 'NONE', 'NONE', #28, #29 );
#4 = DATE_AND_TIME( #30, #31 );
#5 = DATE_TIME_ROLE( 'creation_date' );
#6 = DATE_TIME_ROLE( 'classification_date' );
#7 = PERSON_AND_ORGANIZATION_ROLE( 'creator' );
#8 = PERSON_AND_ORGANIZATION_ROLE( 'design_supplier' );
#9 = PERSON_AND_ORGANIZATION_ROLE( 'classification_officer' );
#10 = PERSON_AND_ORGANIZATION_ROLE( 'design_owner' );
#11 = APPROVAL_PERSON_ORGANIZATION( #32, #33, #34 );
#12 = APPROVAL_DATE_TIME( #4, #33 );
#13 = CC_DESIGN_APPROVAL( #33, ( #35, #36, #37 ) );
#14 = CC_DESIGN_DATE_AND_TIME_ASSIGNMENT( #4, #5, ( #37 ) );
#15 = CC_DESIGN_DATE_AND_TIME_ASSIGNMENT( #4, #6, ( #35 ) );
#16 = CC_DESIGN_PERSON_AND_ORGANIZATION_ASSIGNMENT( #32, #10, ( #38 ) );
#17 = CC_DESIGN_PERSON_AND_ORGANIZATION_ASSIGNMENT( #32, #7, ( #37 ) );
#18 = CC_DESIGN_PERSON_AND_ORGANIZATION_ASSIGNMENT( #32, #7, ( #36 ) );
#19 = CC_DESIGN_PERSON_AND_ORGANIZATION_ASSIGNMENT( #32, #8, ( #36 ) );
#20 = CC_DESIGN_SECURITY_CLASSIFICATION( #35, ( #36 ) );
#21 = CC_DESIGN_PERSON_AND_ORGANIZATION_ASSIGNMENT( #32, #9, ( #35 ) );
#22 = SHAPE_DEFINITION_REPRESENTATION( #39, #40 );
#23 =  ( GEOMETRIC_REPRESENTATION_CONTEXT( 3 )GLOBAL_UNCERTAINTY_ASSIGNED_CONTEXT( ( #43 ) )GLOBAL_UNIT_ASSIGNED_CONTEXT( ( #45, #46, #47 ) )REPRESENTATION_CONTEXT( 'NONE', 'WORKSPACE' ) );
#27 = APPLICATION_CONTEXT( 'CONFIGURATION CONTROLLED 3D DESIGNS OF MECHANICAL PARTS AND ASSEMBLIES' );
#28 = PRODUCT_CATEGORY( 'part', 'NONE' );
#29 = PRODUCT_RELATED_PRODUCT_CATEGORY( 'detail', ' ', ( #38 ) );
#30 = CALENDAR_DATE( 2011, 29, 11 );
#31 = LOCAL_TIME( 11, 6, 6.00000000000000, #49 );
#32 = PERSON_AND_ORGANIZATION( #50, #51 );
#33 = APPROVAL( #52, 'SOLID MODEL' );
#34 = APPROVAL_ROLE( 'APPROVED' );
#35 = SECURITY_CLASSIFICATION( '', '', #53 );
#36 = PRODUCT_DEFINITION_FORMATION_WITH_SPECIFIED_SOURCE( ' ', 'NONE', #38, .NOT_KNOWN. );
#37 = PRODUCT_DEFINITION( 'NONE', 'NONE', #36, #1 );
#38 = PRODUCT( '1', '1', 'PART-1-DESC', ( #54 ) );
#39 = PRODUCT_DEFINITION_SHAPE( 'NONE', 'NONE', #37 );
#40 = ADVANCED_BREP_SHAPE_REPRESENTATION( '1', ( #55, #56 ), #23 );
#43 = UNCERTAINTY_MEASURE_WITH_UNIT( LENGTH_MEASURE( 1.00000000000000E-006 ), #45, '', '' );
#45 =  ( CONVERSION_BASED_UNIT( 'MILLIMETRE', #59 )LENGTH_UNIT(  )NAMED_UNIT( #62 ) );
#46 =  ( NAMED_UNIT( #64 )PLANE_ANGLE_UNIT(  )SI_UNIT( $, .RADIAN. ) );
#47 =  ( NAMED_UNIT( #64 )SOLID_ANGLE_UNIT(  )SI_UNIT( $, .STERADIAN. ) );
#49 = COORDINATED_UNIVERSAL_TIME_OFFSET( 5, 0, .BEHIND. );
#50 = PERSON( '', 'UNSPECIFIED', $, $, $, $ );
#51 = ORGANIZATION( 'UNSPECIFIED', 'UNSPECIFIED', 'UNSPECIFIED' );
#52 = APPROVAL_STATUS( 'approved' );
#53 = SECURITY_CLASSIFICATION_LEVEL( 'unclassified' );
#54 = MECHANICAL_CONTEXT( '', #27, 'mechanical' );
#55 = MANIFOLD_SOLID_BREP( '1', #70 );
#56 = AXIS2_PLACEMENT_3D( '', #71, #72, #73 );
#59 = LENGTH_MEASURE_WITH_UNIT( LENGTH_MEASURE( 1.00000000000000 ), #74 );
#62 = DIMENSIONAL_EXPONENTS( 1.00000000000000, 0.000000000000000, 0.000000000000000, 0.000000000000000, 0.000000000000000, 0.000000000000000, 0.000000000000000 );
#64 = DIMENSIONAL_EXPONENTS( 0.000000000000000, 0.000000000000000, 0.000000000000000, 0.000000000000000, 0.000000000000000, 0.000000000000000, 0.000000000000000 );
#70 = CLOSED_SHELL( '', ( #75, #76, #77, #78, #79, #80, #81, #82, #83, #84, #85, #86 ) );
#71 = CARTESIAN_POINT( '', ( 0.000000000000000, 0.000000000000000, 0.000000000000000 ) );
#72 = DIRECTION( '', ( 0.000000000000000, 0.000000000000000, 1.00000000000000 ) );
#73 = DIRECTION( '', ( 1.00000000000000, 0.000000000000000, 0.000000000000000 ) );
#74 =  ( NAMED_UNIT( #62 )LENGTH_UNIT(  )SI_UNIT( .MILLI., .METRE. ) );
#75 = ADVANCED_FACE( '', ( #88 ), #89, .T. );
#76 = ADVANCED_FACE( '', ( #90 ), #91, .T. );
#77 = ADVANCED_FACE( '', ( #92 ), #93, .F. );
#78 = ADVANCED_FACE( '', ( #94 ), #95, .F. );
#79 = ADVANCED_FACE( '', ( #96 ), #97, .F. );
#80 = ADVANCED_FACE( '', ( #98 ), #99, .F. );
#81 = ADVANCED_FACE( '', ( #100 ), #101, .F. );
#82 = ADVANCED_FACE( '', ( #102, #103 ), #104, .T. );
#83 = ADVANCED_FACE( '', ( #105 ), #106, .T. );
#84 = ADVANCED_FACE( '', ( #107 ), #108, .T. );
#85 = ADVANCED_FACE( '', ( #109 ), #110, .T. );
#86 = ADVANCED_FACE( '', ( #111, #112 ), #113, .T. );
#88 = FACE_OUTER_BOUND( '', #114, .T. );
#89 = CYLINDRICAL_SURFACE( '', #115, 25.0000000000000 );
#90 = FACE_OUTER_BOUND( '', #116, .T. );
#91 = CYLINDRICAL_SURFACE( '', #117, 25.0000000000000 );
#92 = FACE_OUTER_BOUND( '', #118, .T. );
#93 = CYLINDRICAL_SURFACE( '', #119, 22.0000000000000 );
#94 = FACE_OUTER_BOUND( '', #120, .T. );
#95 = CYLINDRICAL_SURFACE( '', #121, 22.0000000000000 );
#96 = FACE_OUTER_BOUND( '', #122, .T. );
#97 = CYLINDRICAL_SURFACE( '', #123, 22.0000000000000 );
#98 = FACE_OUTER_BOUND( '', #124, .T. );
#99 = SPHERICAL_SURFACE( '', #125, 22.0000000000000 );
#100 = FACE_OUTER_BOUND( '', #126, .T. );
#101 = CYLINDRICAL_SURFACE( '', #127, 22.0000000000000 );
#102 = FACE_BOUND( '', #128, .T. );
#103 = FACE_OUTER_BOUND( '', #129, .T. );
#104 = PLANE( '', #130 );
#105 = FACE_OUTER_BOUND( '', #131, .T. );
#106 = CYLINDRICAL_SURFACE( '', #132, 25.0000000000000 );
#107 = FACE_OUTER_BOUND( '', #133, .T. );
#108 = CYLINDRICAL_SURFACE( '', #134, 25.0000000000000 );
#109 = FACE_OUTER_BOUND( '', #135, .T. );
#110 = SPHERICAL_SURFACE( '', #136, 25.0000000000000 );
#111 = FACE_BOUND( '', #137, .T. );
#112 = FACE_OUTER_BOUND( '', #138, .T. );
#113 = PLANE( '', #139 );
#114 = EDGE_LOOP( '', ( #140, #141, #142, #143, #144 ) );
#115 = AXIS2_PLACEMENT_3D( '', #145, #146, #147 );
#116 = EDGE_LOOP( '', ( #148, #149, #150, #151, #152 ) );
#117 = AXIS2_PLACEMENT_3D( '', #153, #154, #155 );
#118 = EDGE_LOOP( '', ( #156, #157, #158, #159, #160 ) );
#119 = AXIS2_PLACEMENT_3D( '', #161, #162, #163 );
#120 = EDGE_LOOP( '', ( #164, #165, #166, #167, #168 ) );
#121 = AXIS2_PLACEMENT_3D( '', #169, #170, #171 );
#122 = EDGE_LOOP( '', ( #172, #173, #174, #175, #176 ) );
#123 = AXIS2_PLACEMENT_3D( '', #177, #178, #179 );
#124 = EDGE_LOOP( '', ( #180, #181, #182, #183 ) );
#125 = AXIS2_PLACEMENT_3D( '', #184, #185, #186 );
#126 = EDGE_LOOP( '', ( #187, #188, #189, #190, #191 ) );
#127 = AXIS2_PLACEMENT_3D( '', #192, #193, #194 );
#128 = EDGE_LOOP( '', ( #195, #196 ) );
#129 = EDGE_LOOP( '', ( #197, #198 ) );
#130 = AXIS2_PLACEMENT_3D( '', #199, #200, #201 );
#131 = EDGE_LOOP( '', ( #202, #203, #204, #205, #206 ) );
#132 = AXIS2_PLACEMENT_3D( '', #207, #208, #209 );
#133 = EDGE_LOOP( '', ( #210, #211, #212, #213, #214 ) );
#134 = AXIS2_PLACEMENT_3D( '', #215, #216, #217 );
#135 = EDGE_LOOP( '', ( #218, #219, #220, #221 ) );
#136 = AXIS2_PLACEMENT_3D( '', #222, #223, #224 );
#137 = EDGE_LOOP( '', ( #225, #226 ) );
#138 = EDGE_LOOP( '', ( #227, #228 ) );
#139 = AXIS2_PLACEMENT_3D( '', #229, #230, #231 );
#140 = ORIENTED_EDGE( '', *, *, #232, .F. );
#141 = ORIENTED_EDGE( '', *, *, #233, .T. );
#142 = ORIENTED_EDGE( '', *, *, #234, .T. );
#143 = ORIENTED_EDGE( '', *, *, #235, .F. );
#144 = ORIENTED_EDGE( '', *, *, #236, .F. );
#145 = CARTESIAN_POINT( '', ( 33.0000000000000, 0.000000000000000, 0.000000000000000 ) );
#146 = DIRECTION( '', ( 1.00000000000000, 0.000000000000000, 0.000000000000000 ) );
#147 = DIRECTION( '', ( 0.000000000000000, 1.00000000000000, -2.44921270764475E-016 ) );
#148 = ORIENTED_EDGE( '', *, *, #237, .F. );
#149 = ORIENTED_EDGE( '', *, *, #238, .T. );
#150 = ORIENTED_EDGE( '', *, *, #239, .F. );
#151 = ORIENTED_EDGE( '', *, *, #234, .F. );
#152 = ORIENTED_EDGE( '', *, *, #240, .F. );
#153 = CARTESIAN_POINT( '', ( 89.3345237791561, -23.3345237791561, 0.000000000000000 ) );
#154 = DIRECTION( '', ( 0.707106781186547, -0.707106781186548, 0.000000000000000 ) );
#155 = DIRECTION( '', ( 0.707106781186548, 0.707106781186547, -2.44921270764544E-016 ) );
#156 = ORIENTED_EDGE( '', *, *, #241, .F. );
#157 = ORIENTED_EDGE( '', *, *, #242, .F. );
#158 = ORIENTED_EDGE( '', *, *, #243, .F. );
#159 = ORIENTED_EDGE( '', *, *, #244, .T. );
#160 = ORIENTED_EDGE( '', *, *, #245, .F. );
#161 = CARTESIAN_POINT( '', ( 33.0000000000000, 0.000000000000000, 0.000000000000000 ) );
#162 = DIRECTION( '', ( 1.00000000000000, 0.000000000000000, 0.000000000000000 ) );
#163 = DIRECTION( '', ( 0.000000000000000, 1.00000000000000, -2.44921270764475E-016 ) );
#164 = ORIENTED_EDGE( '', *, *, #246, .F. );
#165 = ORIENTED_EDGE( '', *, *, #247, .T. );
#166 = ORIENTED_EDGE( '', *, *, #244, .F. );
#167 = ORIENTED_EDGE( '', *, *, #248, .F. );
#168 = ORIENTED_EDGE( '', *, *, #249, .F. );
#169 = CARTESIAN_POINT( '', ( 89.3345237791561, -23.3345237791561, 0.000000000000000 ) );
#170 = DIRECTION( '', ( 0.707106781186547, -0.707106781186548, 2.60780464535872E-032 ) );
#171 = DIRECTION( '', ( 0.707106781186548, 0.707106781186547, -2.44921270764525E-016 ) );
#172 = ORIENTED_EDGE( '', *, *, #246, .T. );
#173 = ORIENTED_EDGE( '', *, *, #250, .F. );
#174 = ORIENTED_EDGE( '', *, *, #248, .T. );
#175 = ORIENTED_EDGE( '', *, *, #251, .F. );
#176 = ORIENTED_EDGE( '', *, *, #252, .T. );
#177 = CARTESIAN_POINT( '', ( 89.3345237791561, -23.3345237791561, 0.000000000000000 ) );
#178 = DIRECTION( '', ( 0.707106781186547, -0.707106781186548, 2.60780464535872E-032 ) );
#179 = DIRECTION( '', ( 0.707106781186548, 0.707106781186547, -2.44921270764525E-016 ) );
#180 = ORIENTED_EDGE( '', *, *, #252, .F. );
#181 = ORIENTED_EDGE( '', *, *, #253, .T. );
#182 = ORIENTED_EDGE( '', *, *, #245, .T. );
#183 = ORIENTED_EDGE( '', *, *, #247, .F. );
#184 = CARTESIAN_POINT( '', ( 66.0000000000000, 0.000000000000000, 0.000000000000000 ) );
#185 = DIRECTION( '', ( 0.000000000000000, 0.000000000000000, 1.00000000000000 ) );
#186 = DIRECTION( '', ( 1.00000000000000, 0.000000000000000, 0.000000000000000 ) );
#187 = ORIENTED_EDGE( '', *, *, #241, .T. );
#188 = ORIENTED_EDGE( '', *, *, #253, .F. );
#189 = ORIENTED_EDGE( '', *, *, #251, .T. );
#190 = ORIENTED_EDGE( '', *, *, #243, .T. );
#191 = ORIENTED_EDGE( '', *, *, #254, .F. );
#192 = CARTESIAN_POINT( '', ( 33.0000000000000, 0.000000000000000, 0.000000000000000 ) );
#193 = DIRECTION( '', ( 1.00000000000000, 0.000000000000000, 0.000000000000000 ) );
#194 = DIRECTION( '', ( 0.000000000000000, 1.00000000000000, -2.44921270764475E-016 ) );
#195 = ORIENTED_EDGE( '', *, *, #249, .T. );
#196 = ORIENTED_EDGE( '', *, *, #250, .T. );
#197 = ORIENTED_EDGE( '', *, *, #238, .F. );
#198 = ORIENTED_EDGE( '', *, *, #255, .F. );
#199 = CARTESIAN_POINT( '', ( 121.507882323144, -37.8302127934803, -3.06151588455594E-015 ) );
#200 = DIRECTION( '', ( 0.707106781186547, -0.707106781186548, 4.93038065763132E-032 ) );
#201 = DIRECTION( '', ( -0.707106781186548, -0.707106781186547, 2.44921270764475E-016 ) );
#202 = ORIENTED_EDGE( '', *, *, #237, .T. );
#203 = ORIENTED_EDGE( '', *, *, #256, .F. );
#204 = ORIENTED_EDGE( '', *, *, #257, .F. );
#205 = ORIENTED_EDGE( '', *, *, #239, .T. );
#206 = ORIENTED_EDGE( '', *, *, #255, .T. );
#207 = CARTESIAN_POINT( '', ( 89.3345237791561, -23.3345237791561, 0.000000000000000 ) );
#208 = DIRECTION( '', ( 0.707106781186547, -0.707106781186548, 0.000000000000000 ) );
#209 = DIRECTION( '', ( 0.707106781186548, 0.707106781186547, -2.44921270764544E-016 ) );
#210 = ORIENTED_EDGE( '', *, *, #232, .T. );
#211 = ORIENTED_EDGE( '', *, *, #258, .F. );
#212 = ORIENTED_EDGE( '', *, *, #235, .T. );
#213 = ORIENTED_EDGE( '', *, *, #257, .T. );
#214 = ORIENTED_EDGE( '', *, *, #259, .T. );
#215 = CARTESIAN_POINT( '', ( 33.0000000000000, 0.000000000000000, 0.000000000000000 ) );
#216 = DIRECTION( '', ( 1.00000000000000, 0.000000000000000, 0.000000000000000 ) );
#217 = DIRECTION( '', ( 0.000000000000000, 1.00000000000000, -2.44921270764475E-016 ) );
#218 = ORIENTED_EDGE( '', *, *, #256, .T. );
#219 = ORIENTED_EDGE( '', *, *, #240, .T. );
#220 = ORIENTED_EDGE( '', *, *, #233, .F. );
#221 = ORIENTED_EDGE( '', *, *, #259, .F. );
#222 = CARTESIAN_POINT( '', ( 66.0000000000000, 0.000000000000000, 0.000000000000000 ) );
#223 = DIRECTION( '', ( 0.000000000000000, 0.000000000000000, 1.00000000000000 ) );
#224 = DIRECTION( '', ( 1.00000000000000, 0.000000000000000, 0.000000000000000 ) );
#225 = ORIENTED_EDGE( '', *, *, #254, .T. );
#226 = ORIENTED_EDGE( '', *, *, #242, .T. );
#227 = ORIENTED_EDGE( '', *, *, #236, .T. );
#228 = ORIENTED_EDGE( '', *, *, #258, .T. );
#229 = CARTESIAN_POINT( '', ( 0.000000000000000, 12.5000000000000, -3.06151588455594E-015 ) );
#230 = DIRECTION( '', ( -1.00000000000000, 0.000000000000000, 0.000000000000000 ) );
#231 = DIRECTION( '', ( 0.000000000000000, 1.00000000000000, -2.44921270764475E-016 ) );
#232 = EDGE_CURVE( '', #260, #261, #262, .T. );
#233 = EDGE_CURVE( '', #260, #263, #264, .T. );
#234 = EDGE_CURVE( '', #263, #265, #266, .T. );
#235 = EDGE_CURVE( '', #267, #265, #268, .T. );
#236 = EDGE_CURVE( '', #261, #267, #269, .T. );
#237 = EDGE_CURVE( '', #270, #271, #272, .T. );
#238 = EDGE_CURVE( '', #270, #273, #274, .T. );
#239 = EDGE_CURVE( '', #265, #273, #275, .T. );
#240 = EDGE_CURVE( '', #271, #263, #276, .T. );
#241 = EDGE_CURVE( '', #277, #278, #279, .T. );
#242 = EDGE_CURVE( '', #280, #277, #281, .T. );
#243 = EDGE_CURVE( '', #282, #280, #283, .T. );
#244 = EDGE_CURVE( '', #282, #284, #285, .T. );
#245 = EDGE_CURVE( '', #278, #284, #286, .T. );
#246 = EDGE_CURVE( '', #287, #288, #289, .T. );
#247 = EDGE_CURVE( '', #287, #284, #290, .T. );
#248 = EDGE_CURVE( '', #291, #282, #292, .T. );
#249 = EDGE_CURVE( '', #288, #291, #293, .T. );
#250 = EDGE_CURVE( '', #291, #288, #294, .T. );
#251 = EDGE_CURVE( '', #295, #282, #296, .T. );
#252 = EDGE_CURVE( '', #295, #287, #297, .T. );
#253 = EDGE_CURVE( '', #295, #278, #298, .T. );
#254 = EDGE_CURVE( '', #277, #280, #299, .T. );
#255 = EDGE_CURVE( '', #273, #270, #300, .T. );
#256 = EDGE_CURVE( '', #301, #271, #302, .T. );
#257 = EDGE_CURVE( '', #265, #301, #303, .T. );
#258 = EDGE_CURVE( '', #267, #261, #304, .T. );
#259 = EDGE_CURVE( '', #301, #260, #305, .T. );
#260 = VERTEX_POINT( '', #306 );
#261 = VERTEX_POINT( '', #307 );
#262 = LINE( '', #308, #309 );
#263 = VERTEX_POINT( '', #310 );
#264 = CIRCLE( '', #311, 25.0000000000000 );
#265 = VERTEX_POINT( '', #312 );
#266 = ELLIPSE( '', #313, 27.0598050073098, 25.0000000000000 );
#267 = VERTEX_POINT( '', #314 );
#268 = LINE( '', #315, #316 );
#269 = CIRCLE( '', #317, 25.0000000000000 );
#270 = VERTEX_POINT( '', #318 );
#271 = VERTEX_POINT( '', #319 );
#272 = LINE( '', #320, #321 );
#273 = VERTEX_POINT( '', #322 );
#274 = CIRCLE( '', #323, 25.0000000000000 );
#275 = LINE( '', #324, #325 );
#276 = CIRCLE( '', #326, 25.0000000000000 );
#277 = VERTEX_POINT( '', #327 );
#278 = VERTEX_POINT( '', #328 );
#279 = LINE( '', #329, #330 );
#280 = VERTEX_POINT( '', #331 );
#281 = CIRCLE( '', #332, 22.0000000000000 );
#282 = VERTEX_POINT( '', #333 );
#283 = LINE( '', #334, #335 );
#284 = VERTEX_POINT( '', #336 );
#285 = ELLIPSE( '', #337, 23.8126284064327, 22.0000000000000 );
#286 = CIRCLE( '', #338, 22.0000000000000 );
#287 = VERTEX_POINT( '', #339 );
#288 = VERTEX_POINT( '', #340 );
#289 = LINE( '', #341, #342 );
#290 = CIRCLE( '', #343, 22.0000000000000 );
#291 = VERTEX_POINT( '', #344 );
#292 = LINE( '', #345, #346 );
#293 = CIRCLE( '', #347, 22.0000000000000 );
#294 = CIRCLE( '', #348, 22.0000000000000 );
#295 = VERTEX_POINT( '', #349 );
#296 = ELLIPSE( '', #350, 23.8126284064327, 22.0000000000000 );
#297 = CIRCLE( '', #351, 22.0000000000000 );
#298 = CIRCLE( '', #352, 22.0000000000000 );
#299 = CIRCLE( '', #353, 22.0000000000000 );
#300 = CIRCLE( '', #354, 25.0000000000000 );
#301 = VERTEX_POINT( '', #355 );
#302 = CIRCLE( '', #356, 25.0000000000000 );
#303 = ELLIPSE( '', #357, 27.0598050073098, 25.0000000000000 );
#304 = CIRCLE( '', #358, 25.0000000000000 );
#305 = CIRCLE( '', #359, 25.0000000000000 );
#306 = CARTESIAN_POINT( '', ( 66.0000000000000, 25.0000000000000, -3.06151588455594E-015 ) );
#307 = CARTESIAN_POINT( '', ( 0.000000000000000, 25.0000000000000, -6.12303176911189E-015 ) );
#308 = CARTESIAN_POINT( '', ( 33.0000000000000, 25.0000000000000, -3.06151588455594E-015 ) );
#309 = VECTOR( '', #360, 1.00000000000000 );
#310 = CARTESIAN_POINT( '', ( 66.0000000000000, -4.59227382683391E-015, -25.0000000000000 ) );
#311 = AXIS2_PLACEMENT_3D( '', #361, #362, #363 );
#312 = CARTESIAN_POINT( '', ( 55.6446609406726, -25.0000000000000, 3.06151588455766E-015 ) );
#313 = AXIS2_PLACEMENT_3D( '', #364, #365, #366 );
#314 = CARTESIAN_POINT( '', ( 0.000000000000000, -25.0000000000000, 3.06151588455594E-015 ) );
#315 = CARTESIAN_POINT( '', ( 33.0000000000000, -25.0000000000000, 3.06151588455594E-015 ) );
#316 = VECTOR( '', #367, 1.00000000000000 );
#317 = AXIS2_PLACEMENT_3D( '', #368, #369, #370 );
#318 = CARTESIAN_POINT( '', ( 130.346717087976, -28.9913780286485, -6.12303176911188E-015 ) );
#319 = CARTESIAN_POINT( '', ( 83.6776695296637, 17.6776695296637, -3.06151588455766E-015 ) );
#320 = CARTESIAN_POINT( '', ( 107.012193308820, -5.65685424949239, -3.06151588455766E-015 ) );
#321 = VECTOR( '', #371, 1.00000000000000 );
#322 = CARTESIAN_POINT( '', ( 94.9913780286484, -64.3467170879758, 3.06151588455766E-015 ) );
#323 = AXIS2_PLACEMENT_3D( '', #372, #373, #374 );
#324 = CARTESIAN_POINT( '', ( 71.6568542494924, -41.0121933088197, 3.06151588455766E-015 ) );
#325 = VECTOR( '', #375, 1.00000000000000 );
#326 = AXIS2_PLACEMENT_3D( '', #376, #377, #378 );
#327 = CARTESIAN_POINT( '', ( 0.000000000000000, 22.0000000000000, -5.38826795681846E-015 ) );
#328 = CARTESIAN_POINT( '', ( 66.0000000000000, 22.0000000000000, -2.69413397840923E-015 ) );
#329 = CARTESIAN_POINT( '', ( 33.0000000000000, 22.0000000000000, -2.69413397840923E-015 ) );
#330 = VECTOR( '', #379, 1.00000000000000 );
#331 = CARTESIAN_POINT( '', ( 0.000000000000000, -22.0000000000000, 2.69413397840923E-015 ) );
#332 = AXIS2_PLACEMENT_3D( '', #380, #381, #382 );
#333 = CARTESIAN_POINT( '', ( 56.8873016277919, -22.0000000000000, 2.69413397841032E-015 ) );
#334 = CARTESIAN_POINT( '', ( 33.0000000000000, -22.0000000000000, 2.69413397840923E-015 ) );
#335 = VECTOR( '', #383, 1.00000000000000 );
#336 = CARTESIAN_POINT( '', ( 66.0000000000000, -4.04120096761385E-015, -22.0000000000000 ) );
#337 = AXIS2_PLACEMENT_3D( '', #384, #385, #386 );
#338 = AXIS2_PLACEMENT_3D( '', #387, #388, #389 );
#339 = CARTESIAN_POINT( '', ( 81.5563491861041, 15.5563491861040, -2.69413397841032E-015 ) );
#340 = CARTESIAN_POINT( '', ( 128.225396744416, -31.1126983722081, -5.38826795681846E-015 ) );
#341 = CARTESIAN_POINT( '', ( 104.890872965260, -7.77817459305203, -2.69413397841032E-015 ) );
#342 = VECTOR( '', #390, 1.00000000000000 );
#343 = AXIS2_PLACEMENT_3D( '', #391, #392, #393 );
#344 = CARTESIAN_POINT( '', ( 97.1126983722081, -62.2253967444162, 2.69413397841032E-015 ) );
#345 = CARTESIAN_POINT( '', ( 73.7781745930520, -38.8908729652601, 2.69413397841032E-015 ) );
#346 = VECTOR( '', #394, 1.00000000000000 );
#347 = AXIS2_PLACEMENT_3D( '', #395, #396, #397 );
#348 = AXIS2_PLACEMENT_3D( '', #398, #399, #400 );
#349 = CARTESIAN_POINT( '', ( 66.0000000000000, 1.34706698920462E-015, 22.0000000000000 ) );
#350 = AXIS2_PLACEMENT_3D( '', #401, #402, #403 );
#351 = AXIS2_PLACEMENT_3D( '', #404, #405, #406 );
#352 = AXIS2_PLACEMENT_3D( '', #407, #408, #409 );
#353 = AXIS2_PLACEMENT_3D( '', #410, #411, #412 );
#354 = AXIS2_PLACEMENT_3D( '', #413, #414, #415 );
#355 = CARTESIAN_POINT( '', ( 66.0000000000000, 1.53075794227797E-015, 25.0000000000000 ) );
#356 = AXIS2_PLACEMENT_3D( '', #416, #417, #418 );
#357 = AXIS2_PLACEMENT_3D( '', #419, #420, #421 );
#358 = AXIS2_PLACEMENT_3D( '', #422, #423, #424 );
#359 = AXIS2_PLACEMENT_3D( '', #425, #426, #427 );
#360 = DIRECTION( '', ( -1.00000000000000, 0.000000000000000, 0.000000000000000 ) );
#361 = CARTESIAN_POINT( '', ( 66.0000000000000, 0.000000000000000, 0.000000000000000 ) );
#362 = DIRECTION( '', ( -1.00000000000000, 0.000000000000000, 0.000000000000000 ) );
#363 = DIRECTION( '', ( 0.000000000000000, 1.00000000000000, -2.44921270764475E-016 ) );
#364 = CARTESIAN_POINT( '', ( 66.0000000000000, -1.06581410364015E-014, 0.000000000000000 ) );
#365 = DIRECTION( '', ( -0.923879532511287, 0.382683432365090, -1.86575985748997E-032 ) );
#366 = DIRECTION( '', ( 0.382683432365090, 0.923879532511287, -2.26277749136017E-016 ) );
#367 = DIRECTION( '', ( 1.00000000000000, 0.000000000000000, 0.000000000000000 ) );
#368 = CARTESIAN_POINT( '', ( 0.000000000000000, 0.000000000000000, 0.000000000000000 ) );
#369 = DIRECTION( '', ( -1.00000000000000, 0.000000000000000, 0.000000000000000 ) );
#370 = DIRECTION( '', ( 0.000000000000000, 1.00000000000000, -2.44921270764475E-016 ) );
#371 = DIRECTION( '', ( -0.707106781186547, 0.707106781186548, 0.000000000000000 ) );
#372 = CARTESIAN_POINT( '', ( 112.669047558312, -46.6690475583121, 0.000000000000000 ) );
#373 = DIRECTION( '', ( -0.707106781186547, 0.707106781186548, 0.000000000000000 ) );
#374 = DIRECTION( '', ( 0.707106781186548, 0.707106781186547, -2.44921270764544E-016 ) );
#375 = DIRECTION( '', ( 0.707106781186547, -0.707106781186548, 0.000000000000000 ) );
#376 = CARTESIAN_POINT( '', ( 66.0000000000000, 3.55271367880050E-015, 0.000000000000000 ) );
#377 = DIRECTION( '', ( -0.707106781186547, 0.707106781186548, -2.01948391736579E-032 ) );
#378 = DIRECTION( '', ( 0.707106781186548, 0.707106781186547, -2.44921270764544E-016 ) );
#379 = DIRECTION( '', ( 1.00000000000000, 0.000000000000000, 0.000000000000000 ) );
#380 = CARTESIAN_POINT( '', ( 0.000000000000000, 0.000000000000000, 0.000000000000000 ) );
#381 = DIRECTION( '', ( 1.00000000000000, 0.000000000000000, 0.000000000000000 ) );
#382 = DIRECTION( '', ( 0.000000000000000, 1.00000000000000, -2.44921270764475E-016 ) );
#383 = DIRECTION( '', ( -1.00000000000000, 0.000000000000000, 0.000000000000000 ) );
#384 = CARTESIAN_POINT( '', ( 66.0000000000000, 0.000000000000000, 0.000000000000000 ) );
#385 = DIRECTION( '', ( 0.923879532511287, -0.382683432365090, 1.20464866831739E-032 ) );
#386 = DIRECTION( '', ( 0.382683432365090, 0.923879532511287, -2.26277749136000E-016 ) );
#387 = CARTESIAN_POINT( '', ( 66.0000000000000, 0.000000000000000, 0.000000000000000 ) );
#388 = DIRECTION( '', ( -1.00000000000000, 0.000000000000000, 0.000000000000000 ) );
#389 = DIRECTION( '', ( 0.000000000000000, 1.00000000000000, -2.44921270764475E-016 ) );
#390 = DIRECTION( '', ( 0.707106781186547, -0.707106781186548, 0.000000000000000 ) );
#391 = CARTESIAN_POINT( '', ( 66.0000000000000, -3.55271367880050E-015, 0.000000000000000 ) );
#392 = DIRECTION( '', ( -0.707106781186547, 0.707106781186548, 0.000000000000000 ) );
#393 = DIRECTION( '', ( 0.707106781186548, 0.707106781186547, -2.44921270764525E-016 ) );
#394 = DIRECTION( '', ( -0.707106781186547, 0.707106781186548, 0.000000000000000 ) );
#395 = CARTESIAN_POINT( '', ( 112.669047558312, -46.6690475583122, 0.000000000000000 ) );
#396 = DIRECTION( '', ( -0.707106781186547, 0.707106781186548, -7.82341393607614E-032 ) );
#397 = DIRECTION( '', ( 0.707106781186548, 0.707106781186547, -2.44921270764525E-016 ) );
#398 = CARTESIAN_POINT( '', ( 112.669047558312, -46.6690475583122, 0.000000000000000 ) );
#399 = DIRECTION( '', ( -0.707106781186547, 0.707106781186548, -7.82341393607614E-032 ) );
#400 = DIRECTION( '', ( 0.707106781186548, 0.707106781186547, -2.44921270764525E-016 ) );
#401 = CARTESIAN_POINT( '', ( 66.0000000000000, 0.000000000000000, 0.000000000000000 ) );
#402 = DIRECTION( '', ( 0.923879532511287, -0.382683432365090, 1.20464866831739E-032 ) );
#403 = DIRECTION( '', ( 0.382683432365090, 0.923879532511287, -2.26277749136000E-016 ) );
#404 = CARTESIAN_POINT( '', ( 66.0000000000000, -3.55271367880050E-015, 0.000000000000000 ) );
#405 = DIRECTION( '', ( -0.707106781186547, 0.707106781186548, 0.000000000000000 ) );
#406 = DIRECTION( '', ( 0.707106781186548, 0.707106781186547, -2.44921270764525E-016 ) );
#407 = CARTESIAN_POINT( '', ( 66.0000000000000, 0.000000000000000, 0.000000000000000 ) );
#408 = DIRECTION( '', ( -1.00000000000000, 0.000000000000000, 0.000000000000000 ) );
#409 = DIRECTION( '', ( 0.000000000000000, 1.00000000000000, -2.44921270764475E-016 ) );
#410 = CARTESIAN_POINT( '', ( 0.000000000000000, 0.000000000000000, 0.000000000000000 ) );
#411 = DIRECTION( '', ( 1.00000000000000, 0.000000000000000, 0.000000000000000 ) );
#412 = DIRECTION( '', ( 0.000000000000000, 1.00000000000000, -2.44921270764475E-016 ) );
#413 = CARTESIAN_POINT( '', ( 112.669047558312, -46.6690475583121, 0.000000000000000 ) );
#414 = DIRECTION( '', ( -0.707106781186547, 0.707106781186548, 0.000000000000000 ) );
#415 = DIRECTION( '', ( 0.707106781186548, 0.707106781186547, -2.44921270764544E-016 ) );
#416 = CARTESIAN_POINT( '', ( 66.0000000000000, 3.55271367880050E-015, 0.000000000000000 ) );
#417 = DIRECTION( '', ( -0.707106781186547, 0.707106781186548, -2.01948391736579E-032 ) );
#418 = DIRECTION( '', ( 0.707106781186548, 0.707106781186547, -2.44921270764544E-016 ) );
#419 = CARTESIAN_POINT( '', ( 66.0000000000000, -1.06581410364015E-014, 0.000000000000000 ) );
#420 = DIRECTION( '', ( -0.923879532511287, 0.382683432365090, -1.86575985748997E-032 ) );
#421 = DIRECTION( '', ( 0.382683432365090, 0.923879532511287, -2.26277749136017E-016 ) );
#422 = CARTESIAN_POINT( '', ( 0.000000000000000, 0.000000000000000, 0.000000000000000 ) );
#423 = DIRECTION( '', ( -1.00000000000000, 0.000000000000000, 0.000000000000000 ) );
#424 = DIRECTION( '', ( 0.000000000000000, 1.00000000000000, -2.44921270764475E-016 ) );
#425 = CARTESIAN_POINT( '', ( 66.0000000000000, 0.000000000000000, 0.000000000000000 ) );
#426 = DIRECTION( '', ( -1.00000000000000, 0.000000000000000, 0.000000000000000 ) );
#427 = DIRECTION( '', ( 0.000000000000000, 1.00000000000000, -2.44921270764475E-016 ) );
ENDSEC;
END-ISO-10303-21;
