ISO-10303-21;
HEADER;
FILE_DESCRIPTION (( 'STEP AP203' ),
    '1' );
FILE_NAME ('5516030.STEP',
    '2017-08-16T15:06:23',
    ( '' ),
    ( '' ),
    'SwSTEP 2.0',
    'SolidWorks 2017',
    '' );
FILE_SCHEMA (( 'CONFIG_CONTROL_DESIGN' ));
ENDSEC;

DATA;
#1 = EDGE_LOOP ( 'NONE', ( #19 ) ) ;
#2 = DATE_TIME_ROLE ( 'creation_date' ) ;
#3 = APPROVAL ( #153, 'UNSPECIFIED' ) ;
#4 = ORIENTED_EDGE ( 'NONE', *, *, #144, .F. ) ;
#5 = EDGE_LOOP ( 'NONE', ( #4 ) ) ;
#6 = CC_DESIGN_PERSON_AND_ORGANIZATION_ASSIGNMENT ( #202, #169, ( #187 ) ) ;
#7 = APPLICATION_CONTEXT ( 'configuration controlled 3d designs of mechanical parts and assemblies' ) ;
#8 = ORIENTED_EDGE ( 'NONE', *, *, #165, .T. ) ;
#9 = VERTEX_POINT ( 'NONE', #118 ) ;
#10 = ORIENTED_EDGE ( 'NONE', *, *, #139, .T. ) ;
#11 = ORIENTED_EDGE ( 'NONE', *, *, #159, .T. ) ;
#12 = CARTESIAN_POINT ( 'NONE',  ( 0.0000000000000000000, -5.000000000000000000, 0.0000000000000000000 ) ) ;
#13 = LOCAL_TIME ( 11, 6, 23.00000000000000000, #91 ) ;
#14 = DIRECTION ( 'NONE',  ( 1.000000000000000000, 0.0000000000000000000, 0.0000000000000000000 ) ) ;
#15 = ORIENTED_EDGE ( 'NONE', *, *, #145, .T. ) ;
#16 = EDGE_LOOP ( 'NONE', ( #39 ) ) ;
#17 = DIRECTION ( 'NONE',  ( 0.0000000000000000000, -0.7071067811865463500, 0.7071067811865486800 ) ) ;
#18 = LOCAL_TIME ( 11, 6, 23.00000000000000000, #100 ) ;
#19 = ORIENTED_EDGE ( 'NONE', *, *, #139, .F. ) ;
#20 = ORIENTED_EDGE ( 'NONE', *, *, #165, .F. ) ;
#21 = CLOSED_SHELL ( 'NONE', ( #156, #99, #78, #56, #51, #49 ) ) ;
#22 = EDGE_LOOP ( 'NONE', ( #15 ) ) ;
#23 = APPLICATION_PROTOCOL_DEFINITION ( 'international standard', 'config_control_design', 1994, #160 ) ;
#24 = ORIENTED_EDGE ( 'NONE', *, *, #159, .F. ) ;
#25 = ORIENTED_EDGE ( 'NONE', *, *, #145, .F. ) ;
#26 = DIRECTION ( 'NONE',  ( 0.0000000000000000000, 0.7071067811865486800, 0.7071067811865463500 ) ) ;
#27 = EDGE_LOOP ( 'NONE', ( #31 ) ) ;
#28 = LOCAL_TIME ( 11, 6, 23.00000000000000000, #157 ) ;
#29 = CC_DESIGN_APPROVAL ( #155, ( #187 ) ) ;
#30 = CARTESIAN_POINT ( 'NONE',  ( 0.0000000000000000000, 5.006316010800757600, 1.225379816518119500E-015 ) ) ;
#31 = ORIENTED_EDGE ( 'NONE', *, *, #162, .T. ) ;
#32 = EDGE_LOOP ( 'NONE', ( #8 ) ) ;
#33 = EDGE_LOOP ( 'NONE', ( #11 ) ) ;
#34 = EDGE_LOOP ( 'NONE', ( #24 ) ) ;
#35 = APPROVAL_PERSON_ORGANIZATION ( #79, #136, #77 ) ;
#36 =( LENGTH_UNIT ( ) NAMED_UNIT ( * ) SI_UNIT ( $, .METRE. ) );
#37 = FACE_OUTER_BOUND ( 'NONE', #22, .T. ) ;
#38 = CARTESIAN_POINT ( 'NONE',  ( 0.0000000000000000000, -0.6776533880423859500, -1.635999999999999500 ) ) ;
#39 = ORIENTED_EDGE ( 'NONE', *, *, #162, .F. ) ;
#40 = DATE_AND_TIME ( #182, #189 ) ;
#41 = LENGTH_MEASURE_WITH_UNIT ( LENGTH_MEASURE( 0.02539999999999999900 ), #36 );
#42 = FACE_OUTER_BOUND ( 'NONE', #86, .T. ) ;
#43 = DIRECTION ( 'NONE',  ( -0.0000000000000000000, 0.7071067811865463500, -0.7071067811865486800 ) ) ;
#44 = COORDINATED_UNIVERSAL_TIME_OFFSET ( 5, 0, .BEHIND. ) ;
#45 = FACE_OUTER_BOUND ( 'NONE', #33, .T. ) ;
#46 = DIRECTION ( 'NONE',  ( 0.0000000000000000000, 0.7071067811865486800, 0.7071067811865463500 ) ) ;
#47 = FACE_BOUND ( 'NONE', #115, .T. ) ;
#48 = FACE_OUTER_BOUND ( 'NONE', #89, .T. ) ;
#49 = ADVANCED_FACE ( 'NONE', ( #170, #37 ), #63, .F. ) ;
#50 = DIRECTION ( 'NONE',  ( 0.0000000000000000000, 0.7071067811865486800, 0.7071067811865463500 ) ) ;
#51 = ADVANCED_FACE ( 'NONE', ( #42, #61 ), #55, .F. ) ;
#52 = CARTESIAN_POINT ( 'NONE',  ( 0.0000000000000000000, 0.0000000000000000000, 6.123031769111888300E-016 ) ) ;
#53 = PLANE ( 'NONE',  #206 ) ;
#54 = FACE_OUTER_BOUND ( 'NONE', #32, .T. ) ;
#55 = CYLINDRICAL_SURFACE ( 'NONE', #168, 1.635999999999999900 ) ;
#56 = ADVANCED_FACE ( 'NONE', ( #47, #58 ), #128, .F. ) ;
#57 = CARTESIAN_POINT ( 'NONE',  ( -3.271999999999999800, -0.6776533880423859500, -1.635999999999999500 ) ) ;
#58 = FACE_OUTER_BOUND ( 'NONE', #5, .T. ) ;
#59 = APPROVAL_DATE_TIME ( #121, #155 ) ;
#60 = DIRECTION ( 'NONE',  ( 0.0000000000000000000, 0.0000000000000000000, 1.000000000000000000 ) ) ;
#61 = FACE_OUTER_BOUND ( 'NONE', #16, .T. ) ;
#62 = PRODUCT_DEFINITION_SHAPE ( 'NONE', 'NONE',  #187 ) ;
#63 = CYLINDRICAL_SURFACE ( 'NONE', #147, 1.635999999999999900 ) ;
#64 = CARTESIAN_POINT ( 'NONE',  ( 0.0000000000000000000, -5.000000000000000000, 0.0000000000000000000 ) ) ;
#65 = APPROVAL_DATE_TIME ( #84, #3 ) ;
#66 = FACE_OUTER_BOUND ( 'NONE', #34, .T. ) ;
#67 =( NAMED_UNIT ( * ) SI_UNIT ( $, .STERADIAN. ) SOLID_ANGLE_UNIT ( ) );
#68 = CARTESIAN_POINT ( 'NONE',  ( 0.0000000000000000000, -0.7331580054003797900, -1.769999999999999400 ) ) ;
#69 = PERSON_AND_ORGANIZATION ( #131, #211 ) ;
#70 = PERSON_AND_ORGANIZATION ( #131, #211 ) ;
#71 = VERTEX_POINT ( 'NONE', #68 ) ;
#72 = AXIS2_PLACEMENT_3D ( 'NONE', #12, #110, #208 ) ;
#73 = CALENDAR_DATE ( 2017, 16, 8 ) ;
#74 = CYLINDRICAL_SURFACE ( 'NONE', #214, 1.770000000000000000 ) ;
#75 = PRODUCT ( '5516030', '5516030', '', ( #85 ) ) ;
#76 = CYLINDRICAL_SURFACE ( 'NONE', #213, 1.770000000000000000 ) ;
#77 = APPROVAL_ROLE ( '' ) ;
#78 = ADVANCED_FACE ( 'NONE', ( #48, #66 ), #74, .T. ) ;
#79 = PERSON_AND_ORGANIZATION ( #131, #211 ) ;
#80 = CIRCLE ( 'NONE', #141, 1.770000000000000000 ) ;
#81 = FACE_BOUND ( 'NONE', #27, .T. ) ;
#82 = CARTESIAN_POINT ( 'NONE',  ( 0.0000000000000000000, -5.000000000000000000, 1.770000000000000000 ) ) ;
#83 = SECURITY_CLASSIFICATION_LEVEL ( 'unclassified' ) ;
#84 = DATE_AND_TIME ( #73, #28 ) ;
#85 = MECHANICAL_CONTEXT ( 'NONE', #7, 'mechanical' ) ;
#86 = EDGE_LOOP ( 'NONE', ( #25 ) ) ;
#87 = VERTEX_POINT ( 'NONE', #82 ) ;
#88 = DIRECTION ( 'NONE',  ( 0.0000000000000000000, 0.7071067811865486800, 0.7071067811865463500 ) ) ;
#89 = EDGE_LOOP ( 'NONE', ( #92 ) ) ;
#90 = DATE_TIME_ROLE ( 'classification_date' ) ;
#91 = COORDINATED_UNIVERSAL_TIME_OFFSET ( 5, 0, .BEHIND. ) ;
#92 = ORIENTED_EDGE ( 'NONE', *, *, #144, .T. ) ;
#93 = DIRECTION ( 'NONE',  ( 0.0000000000000000000, 0.7071067811865463500, -0.7071067811865486800 ) ) ;
#94 = CC_DESIGN_SECURITY_CLASSIFICATION ( #184, ( #195 ) ) ;
#95 = VERTEX_POINT ( 'NONE', #119 ) ;
#96 = CIRCLE ( 'NONE', #133, 1.635999999999999900 ) ;
#97 = DIRECTION ( 'NONE',  ( 0.0000000000000000000, 1.000000000000000000, 0.0000000000000000000 ) ) ;
#98 = DIRECTION ( 'NONE',  ( -0.0000000000000000000, -1.000000000000000000, -1.224606353822377500E-016 ) ) ;
#99 = ADVANCED_FACE ( 'NONE', ( #45, #54 ), #76, .T. ) ;
#100 = COORDINATED_UNIVERSAL_TIME_OFFSET ( 5, 0, .BEHIND. ) ;
#101 = PERSON_AND_ORGANIZATION ( #131, #211 ) ;
#102 = DIRECTION ( 'NONE',  ( 0.0000000000000000000, -0.7071067811865463500, 0.7071067811865486800 ) ) ;
#103 = COORDINATED_UNIVERSAL_TIME_OFFSET ( 5, 0, .BEHIND. ) ;
#104 = CARTESIAN_POINT ( 'NONE',  ( -2.003522163405069800E-016, 0.6776533880423842900, 1.636000000000001000 ) ) ;
#105 = CARTESIAN_POINT ( 'NONE',  ( -3.539999999999999600, 0.7331580054003794500, 1.770000000000000000 ) ) ;
#106 = DIRECTION ( 'NONE',  ( 0.0000000000000000000, 0.7071067811865463500, -0.7071067811865486800 ) ) ;
#107 = CARTESIAN_POINT ( 'NONE',  ( 0.0000000000000000000, -5.000000000000000000, 1.635999999999999900 ) ) ;
#108 = UNCERTAINTY_MEASURE_WITH_UNIT (LENGTH_MEASURE( 1.000000000000000100E-005 ), #171, 'distance_accuracy_value', 'NONE');
#109 =( NAMED_UNIT ( * ) PLANE_ANGLE_UNIT ( ) SI_UNIT ( $, .RADIAN. ) );
#110 = DIRECTION ( 'NONE',  ( 0.0000000000000000000, 1.000000000000000000, 0.0000000000000000000 ) ) ;
#111 = CARTESIAN_POINT ( 'NONE',  ( 0.0000000000000000000, -5.000000000000000000, 0.0000000000000000000 ) ) ;
#112 = CARTESIAN_POINT ( 'NONE',  ( 0.0000000000000000000, -0.6776533880423859500, -1.635999999999999500 ) ) ;
#113 = EDGE_LOOP ( 'NONE', ( #20 ) ) ;
#114 = DIRECTION ( 'NONE',  ( 0.0000000000000000000, 0.0000000000000000000, -1.000000000000000000 ) ) ;
#115 = EDGE_LOOP ( 'NONE', ( #10 ) ) ;
#116 = APPROVAL_ROLE ( '' ) ;
#117 = CC_DESIGN_DATE_AND_TIME_ASSIGNMENT ( #172, #90, ( #184 ) ) ;
#118 = CARTESIAN_POINT ( 'NONE',  ( 0.0000000000000000000, 4.787112908632923200, -2.283954903232556300 ) ) ;
#119 = CARTESIAN_POINT ( 'NONE',  ( 0.0000000000000000000, 4.692360599953925500, -2.378707211911553500 ) ) ;
#120 = APPLICATION_PROTOCOL_DEFINITION ( 'international standard', 'config_control_design', 1994, #7 ) ;
#121 = DATE_AND_TIME ( #134, #154 ) ;
#122 = CC_DESIGN_APPROVAL ( #136, ( #184 ) ) ;
#123 = CARTESIAN_POINT ( 'NONE',  ( 3.539999999999999600, -0.7331580054003797900, -1.769999999999999400 ) ) ;
#124 = CARTESIAN_POINT ( 'NONE',  ( 0.0000000000000000000, -0.7331580054003797900, -1.769999999999999400 ) ) ;
#125 = PERSON_AND_ORGANIZATION_ROLE ( 'design_supplier' ) ;
#126 = PERSON_AND_ORGANIZATION_ROLE ( 'creator' ) ;
#127 =( BOUNDED_CURVE ( )  B_SPLINE_CURVE ( 3, ( #124, #192, #105, #175, #176, #123, #203 ),
 .UNSPECIFIED., .T., .T. ) 
 B_SPLINE_CURVE_WITH_KNOTS ( ( 4, 3, 4 ),
 ( 0.0000000000000000000, 3.141592653589793100, 6.283185307179586200 ),
 .UNSPECIFIED. ) 
 CURVE ( )  GEOMETRIC_REPRESENTATION_ITEM ( )  RATIONAL_B_SPLINE_CURVE ( ( 1.000000000000000000, 0.3333333333333333700, 0.3333333333333333700, 1.000000000000000000, 0.3333333333333333700, 0.3333333333333333700, 1.000000000000000000 ) ) 
 REPRESENTATION_ITEM ( '' )  );
#128 = PLANE ( 'NONE',  #72 ) ;
#129 = CC_DESIGN_PERSON_AND_ORGANIZATION_ASSIGNMENT ( #179, #125, ( #195 ) ) ;
#130 = DATE_AND_TIME ( #186, #13 ) ;
#131 = PERSON ( 'UNSPECIFIED', 'UNSPECIFIED', 'UNSPECIFIED', ('UNSPECIFIED'), ('UNSPECIFIED'), ('UNSPECIFIED') ) ;
#132 = VERTEX_POINT ( 'NONE', #200 ) ;
#133 = AXIS2_PLACEMENT_3D ( 'NONE', #111, #135, #185 ) ;
#134 = CALENDAR_DATE ( 2017, 16, 8 ) ;
#135 = DIRECTION ( 'NONE',  ( 0.0000000000000000000, 1.000000000000000000, 0.0000000000000000000 ) ) ;
#136 = APPROVAL ( #164, 'UNSPECIFIED' ) ;
#137 = DIRECTION ( 'NONE',  ( 0.0000000000000000000, 0.7071067811865486800, 0.7071067811865463500 ) ) ;
#138 = SHAPE_DEFINITION_REPRESENTATION ( #62, #197 ) ;
#139 = EDGE_CURVE ( 'NONE', #193, #193, #96, .T. ) ;
#140 = PERSON_AND_ORGANIZATION ( #131, #211 ) ;
#141 = AXIS2_PLACEMENT_3D ( 'NONE', #64, #97, #143 ) ;
#142 = CARTESIAN_POINT ( 'NONE',  ( 3.271999999999999800, 0.6776533880423845100, 1.636000000000001500 ) ) ;
#143 = DIRECTION ( 'NONE',  ( 0.0000000000000000000, 0.0000000000000000000, 1.000000000000000000 ) ) ;
#144 = EDGE_CURVE ( 'NONE', #87, #87, #80, .T. ) ;
#145 = EDGE_CURVE ( 'NONE', #132, #132, #166, .T. ) ;
#146 = CARTESIAN_POINT ( 'NONE',  ( -3.271999999999999800, 0.6776533880423841700, 1.636000000000000800 ) ) ;
#147 = AXIS2_PLACEMENT_3D ( 'NONE', #198, #161, #209 ) ;
#148 = DESIGN_CONTEXT ( 'detailed design', #160, 'design' ) ;
#149 = APPROVAL_PERSON_ORGANIZATION ( #178, #155, #151 ) ;
#150 = FACE_OUTER_BOUND ( 'NONE', #113, .T. ) ;
#151 = APPROVAL_ROLE ( '' ) ;
#152 = DIMENSIONAL_EXPONENTS ( 1.000000000000000000, 0.0000000000000000000, 0.0000000000000000000, 0.0000000000000000000, 0.0000000000000000000, 0.0000000000000000000, 0.0000000000000000000 ) ;
#153 = APPROVAL_STATUS ( 'not_yet_approved' ) ;
#154 = LOCAL_TIME ( 11, 6, 23.00000000000000000, #103 ) ;
#155 = APPROVAL ( #210, 'UNSPECIFIED' ) ;
#156 = ADVANCED_FACE ( 'NONE', ( #150, #81 ), #53, .T. ) ;
#157 = COORDINATED_UNIVERSAL_TIME_OFFSET ( 5, 0, .BEHIND. ) ;
#158 = PERSON_AND_ORGANIZATION_ROLE ( 'classification_officer' ) ;
#159 = EDGE_CURVE ( 'NONE', #71, #71, #127, .T. ) ;
#160 = APPLICATION_CONTEXT ( 'configuration controlled 3d designs of mechanical parts and assemblies' ) ;
#161 = DIRECTION ( 'NONE',  ( -0.0000000000000000000, -1.000000000000000000, -1.224606353822377500E-016 ) ) ;
#162 = EDGE_CURVE ( 'NONE', #95, #95, #217, .T. ) ;
#163 = APPROVAL_PERSON_ORGANIZATION ( #140, #3, #116 ) ;
#164 = APPROVAL_STATUS ( 'not_yet_approved' ) ;
#165 = EDGE_CURVE ( 'NONE', #9, #9, #180, .T. ) ;
#166 =( BOUNDED_CURVE ( )  B_SPLINE_CURVE ( 3, ( #112, #57, #146, #104, #142, #174, #38 ),
 .UNSPECIFIED., .T., .T. ) 
 B_SPLINE_CURVE_WITH_KNOTS ( ( 4, 3, 4 ),
 ( 0.0000000000000000000, 3.141592653589793100, 6.283185307179586200 ),
 .UNSPECIFIED. ) 
 CURVE ( )  GEOMETRIC_REPRESENTATION_ITEM ( )  RATIONAL_B_SPLINE_CURVE ( ( 1.000000000000000000, 0.3333333333333333700, 0.3333333333333333700, 1.000000000000000000, 0.3333333333333333700, 0.3333333333333333700, 1.000000000000000000 ) ) 
 REPRESENTATION_ITEM ( '' )  );
#167 = PERSON_AND_ORGANIZATION_ROLE ( 'design_owner' ) ;
#168 = AXIS2_PLACEMENT_3D ( 'NONE', #194, #106, #50 ) ;
#169 = PERSON_AND_ORGANIZATION_ROLE ( 'creator' ) ;
#170 = FACE_OUTER_BOUND ( 'NONE', #1, .T. ) ;
#171 =( CONVERSION_BASED_UNIT ( 'INCH', #41 ) LENGTH_UNIT ( ) NAMED_UNIT ( #152 ) );
#172 = DATE_AND_TIME ( #204, #18 ) ;
#173 = PRODUCT_RELATED_PRODUCT_CATEGORY ( 'detail', '', ( #75 ) ) ;
#174 = CARTESIAN_POINT ( 'NONE',  ( 3.271999999999999800, -0.6776533880423859500, -1.635999999999999500 ) ) ;
#175 = CARTESIAN_POINT ( 'NONE',  ( -2.167624834490815300E-016, 0.7331580054003797900, 1.770000000000000500 ) ) ;
#176 = CARTESIAN_POINT ( 'NONE',  ( 3.539999999999999600, 0.7331580054003799000, 1.770000000000001100 ) ) ;
#177 = CARTESIAN_POINT ( 'NONE',  ( 0.0000000000000000000, 0.0000000000000000000, 0.0000000000000000000 ) ) ;
#178 = PERSON_AND_ORGANIZATION ( #131, #211 ) ;
#179 = PERSON_AND_ORGANIZATION ( #131, #211 ) ;
#180 = CIRCLE ( 'NONE', #201, 1.770000000000000000 ) ;
#181 = CC_DESIGN_PERSON_AND_ORGANIZATION_ASSIGNMENT ( #101, #158, ( #184 ) ) ;
#182 = CALENDAR_DATE ( 2017, 16, 8 ) ;
#183 = MANIFOLD_SOLID_BREP ( 'Sweep-Thin1', #21 ) ;
#184 = SECURITY_CLASSIFICATION ( '', '', #83 ) ;
#185 = DIRECTION ( 'NONE',  ( 0.0000000000000000000, 0.0000000000000000000, 1.000000000000000000 ) ) ;
#186 = CALENDAR_DATE ( 2017, 16, 8 ) ;
#187 = PRODUCT_DEFINITION ( 'UNKNOWN', '', #195, #148 ) ;
#188 = CARTESIAN_POINT ( 'NONE',  ( 0.0000000000000000000, 3.535533905932732900, -3.535533905932742600 ) ) ;
#189 = LOCAL_TIME ( 11, 6, 23.00000000000000000, #44 ) ;
#190 = CC_DESIGN_PERSON_AND_ORGANIZATION_ASSIGNMENT ( #69, #167, ( #75 ) ) ;
#191 = AXIS2_PLACEMENT_3D ( 'NONE', #177, #60, #14 ) ;
#192 = CARTESIAN_POINT ( 'NONE',  ( -3.539999999999999600, -0.7331580054003797900, -1.769999999999999400 ) ) ;
#193 = VERTEX_POINT ( 'NONE', #107 ) ;
#194 = CARTESIAN_POINT ( 'NONE',  ( 0.0000000000000000000, 0.0000000000000000000, 6.123031769111888300E-016 ) ) ;
#195 = PRODUCT_DEFINITION_FORMATION_WITH_SPECIFIED_SOURCE ( 'ANY', '', #75, .NOT_KNOWN. ) ;
#196 = CARTESIAN_POINT ( 'NONE',  ( 0.0000000000000000000, 3.535533905932731500, -3.535533905932743100 ) ) ;
#197 = ADVANCED_BREP_SHAPE_REPRESENTATION ( '5516030', ( #183, #191 ), #199 ) ;
#198 = CARTESIAN_POINT ( 'NONE',  ( 0.0000000000000000000, 5.006316010800757600, 1.225379816518119500E-015 ) ) ;
#199 =( GEOMETRIC_REPRESENTATION_CONTEXT ( 3 ) GLOBAL_UNCERTAINTY_ASSIGNED_CONTEXT ( ( #108 ) ) GLOBAL_UNIT_ASSIGNED_CONTEXT ( ( #171, #109, #67 ) ) REPRESENTATION_CONTEXT ( 'NONE', 'WORKASPACE' ) );
#200 = CARTESIAN_POINT ( 'NONE',  ( 0.0000000000000000000, -0.6776533880423859500, -1.635999999999999500 ) ) ;
#201 = AXIS2_PLACEMENT_3D ( 'NONE', #196, #102, #88 ) ;
#202 = PERSON_AND_ORGANIZATION ( #131, #211 ) ;
#203 = CARTESIAN_POINT ( 'NONE',  ( 0.0000000000000000000, -0.7331580054003797900, -1.769999999999999400 ) ) ;
#204 = CALENDAR_DATE ( 2017, 16, 8 ) ;
#205 = CC_DESIGN_PERSON_AND_ORGANIZATION_ASSIGNMENT ( #70, #126, ( #195 ) ) ;
#206 = AXIS2_PLACEMENT_3D ( 'NONE', #188, #43, #46 ) ;
#207 = AXIS2_PLACEMENT_3D ( 'NONE', #215, #17, #26 ) ;
#208 = DIRECTION ( 'NONE',  ( 0.0000000000000000000, -0.0000000000000000000, 1.000000000000000000 ) ) ;
#209 = DIRECTION ( 'NONE',  ( 0.0000000000000000000, 0.0000000000000000000, -1.000000000000000000 ) ) ;
#210 = APPROVAL_STATUS ( 'not_yet_approved' ) ;
#211 = ORGANIZATION ( 'UNSPECIFIED', 'UNSPECIFIED', '' ) ;
#212 = CC_DESIGN_APPROVAL ( #3, ( #195 ) ) ;
#213 = AXIS2_PLACEMENT_3D ( 'NONE', #52, #93, #137 ) ;
#214 = AXIS2_PLACEMENT_3D ( 'NONE', #30, #98, #114 ) ;
#215 = CARTESIAN_POINT ( 'NONE',  ( 0.0000000000000000000, 3.535533905932731500, -3.535533905932743100 ) ) ;
#216 = APPROVAL_DATE_TIME ( #130, #136 ) ;
#217 = CIRCLE ( 'NONE', #207, 1.635999999999999900 ) ;
#218 = CC_DESIGN_DATE_AND_TIME_ASSIGNMENT ( #40, #2, ( #187 ) ) ;
ENDSEC;
END-ISO-10303-21;
