ISO-10303-21;
HEADER;
FILE_DESCRIPTION( ( '' ), '1' );
FILE_NAME( 'R:/Engineering/Parts CD files/Industrial & Dual Contained/Halar/EXT LEG 90/AGRU_40068002521_ECTFE natur_MULTI-Bogen 90°_25X1,9  SDR21  ISO S-10_110.stp', '2011-12-29T15:47:32', ( '' ), ( '' ), ' ', ' ', ' ' );
FILE_SCHEMA( ( 'CONFIG_CONTROL_DESIGN' ) );
ENDSEC;
DATA;
#1 = DESIGN_CONTEXT( '', #27, 'design' );
#2 = APPLICATION_PROTOCOL_DEFINITION( 'INTERNATIONAL STANDARD', 'config_control_design', 1994, #27 );
#3 = PRODUCT_CATEGORY_RELATIONSHIP( 'NONE', 'NONE', #28, #29 );
#4 = DATE_AND_TIME( #30, #31 );
#5 = DATE_TIME_ROLE( 'creation_date' );
#6 = DATE_TIME_ROLE( 'classification_date' );
#7 = PERSON_AND_ORGANIZATION_ROLE( 'creator' );
#8 = PERSON_AND_ORGANIZATION_ROLE( 'design_supplier' );
#9 = PERSON_AND_ORGANIZATION_ROLE( 'classification_officer' );
#10 = PERSON_AND_ORGANIZATION_ROLE( 'design_owner' );
#11 = APPROVAL_PERSON_ORGANIZATION( #32, #33, #34 );
#12 = APPROVAL_DATE_TIME( #4, #33 );
#13 = CC_DESIGN_APPROVAL( #33, ( #35, #36, #37 ) );
#14 = CC_DESIGN_DATE_AND_TIME_ASSIGNMENT( #4, #5, ( #37 ) );
#15 = CC_DESIGN_DATE_AND_TIME_ASSIGNMENT( #4, #6, ( #35 ) );
#16 = CC_DESIGN_PERSON_AND_ORGANIZATION_ASSIGNMENT( #32, #10, ( #38 ) );
#17 = CC_DESIGN_PERSON_AND_ORGANIZATION_ASSIGNMENT( #32, #7, ( #37 ) );
#18 = CC_DESIGN_PERSON_AND_ORGANIZATION_ASSIGNMENT( #32, #7, ( #36 ) );
#19 = CC_DESIGN_PERSON_AND_ORGANIZATION_ASSIGNMENT( #32, #8, ( #36 ) );
#20 = CC_DESIGN_SECURITY_CLASSIFICATION( #35, ( #36 ) );
#21 = CC_DESIGN_PERSON_AND_ORGANIZATION_ASSIGNMENT( #32, #9, ( #35 ) );
#22 = SHAPE_DEFINITION_REPRESENTATION( #39, #40 );
#23 =  ( GEOMETRIC_REPRESENTATION_CONTEXT( 3 )GLOBAL_UNCERTAINTY_ASSIGNED_CONTEXT( ( #43 ) )GLOBAL_UNIT_ASSIGNED_CONTEXT( ( #45, #46, #47 ) )REPRESENTATION_CONTEXT( 'NONE', 'WORKSPACE' ) );
#27 = APPLICATION_CONTEXT( 'CONFIGURATION CONTROLLED 3D DESIGNS OF MECHANICAL PARTS AND ASSEMBLIES' );
#28 = PRODUCT_CATEGORY( 'part', 'NONE' );
#29 = PRODUCT_RELATED_PRODUCT_CATEGORY( 'detail', ' ', ( #38 ) );
#30 = CALENDAR_DATE( 2011, 29, 11 );
#31 = LOCAL_TIME( 10, 47, 32.0000000000000, #49 );
#32 = PERSON_AND_ORGANIZATION( #50, #51 );
#33 = APPROVAL( #52, 'SOLID MODEL' );
#34 = APPROVAL_ROLE( 'APPROVED' );
#35 = SECURITY_CLASSIFICATION( '', '', #53 );
#36 = PRODUCT_DEFINITION_FORMATION_WITH_SPECIFIED_SOURCE( ' ', 'NONE', #38, .NOT_KNOWN. );
#37 = PRODUCT_DEFINITION( 'NONE', 'NONE', #36, #1 );
#38 = PRODUCT( '1', '1', 'PART-1-DESC', ( #54 ) );
#39 = PRODUCT_DEFINITION_SHAPE( 'NONE', 'NONE', #37 );
#40 = ADVANCED_BREP_SHAPE_REPRESENTATION( '1', ( #55, #56 ), #23 );
#43 = UNCERTAINTY_MEASURE_WITH_UNIT( LENGTH_MEASURE( 1.00000000000000E-006 ), #45, '', '' );
#45 =  ( CONVERSION_BASED_UNIT( 'MILLIMETRE', #59 )LENGTH_UNIT(  )NAMED_UNIT( #62 ) );
#46 =  ( NAMED_UNIT( #64 )PLANE_ANGLE_UNIT(  )SI_UNIT( $, .RADIAN. ) );
#47 =  ( NAMED_UNIT( #64 )SOLID_ANGLE_UNIT(  )SI_UNIT( $, .STERADIAN. ) );
#49 = COORDINATED_UNIVERSAL_TIME_OFFSET( 5, 0, .BEHIND. );
#50 = PERSON( '', 'UNSPECIFIED', $, $, $, $ );
#51 = ORGANIZATION( 'UNSPECIFIED', 'UNSPECIFIED', 'UNSPECIFIED' );
#52 = APPROVAL_STATUS( 'approved' );
#53 = SECURITY_CLASSIFICATION_LEVEL( 'unclassified' );
#54 = MECHANICAL_CONTEXT( '', #27, 'mechanical' );
#55 = MANIFOLD_SOLID_BREP( '1', #70 );
#56 = AXIS2_PLACEMENT_3D( '', #71, #72, #73 );
#59 = LENGTH_MEASURE_WITH_UNIT( LENGTH_MEASURE( 1.00000000000000 ), #74 );
#62 = DIMENSIONAL_EXPONENTS( 1.00000000000000, 0.000000000000000, 0.000000000000000, 0.000000000000000, 0.000000000000000, 0.000000000000000, 0.000000000000000 );
#64 = DIMENSIONAL_EXPONENTS( 0.000000000000000, 0.000000000000000, 0.000000000000000, 0.000000000000000, 0.000000000000000, 0.000000000000000, 0.000000000000000 );
#70 = CLOSED_SHELL( '', ( #75, #76, #77, #78, #79, #80, #81, #82, #83, #84, #85, #86, #87, #88 ) );
#71 = CARTESIAN_POINT( '', ( 0.000000000000000, 0.000000000000000, 0.000000000000000 ) );
#72 = DIRECTION( '', ( 0.000000000000000, 0.000000000000000, 1.00000000000000 ) );
#73 = DIRECTION( '', ( 1.00000000000000, 0.000000000000000, 0.000000000000000 ) );
#74 =  ( NAMED_UNIT( #62 )LENGTH_UNIT(  )SI_UNIT( .MILLI., .METRE. ) );
#75 = ADVANCED_FACE( '', ( #90 ), #91, .T. );
#76 = ADVANCED_FACE( '', ( #92 ), #93, .F. );
#77 = ADVANCED_FACE( '', ( #94 ), #95, .F. );
#78 = ADVANCED_FACE( '', ( #96 ), #97, .T. );
#79 = ADVANCED_FACE( '', ( #98 ), #99, .T. );
#80 = ADVANCED_FACE( '', ( #100 ), #101, .F. );
#81 = ADVANCED_FACE( '', ( #102 ), #103, .F. );
#82 = ADVANCED_FACE( '', ( #104 ), #105, .T. );
#83 = ADVANCED_FACE( '', ( #106, #107 ), #108, .T. );
#84 = ADVANCED_FACE( '', ( #109, #110 ), #111, .T. );
#85 = ADVANCED_FACE( '', ( #112 ), #113, .T. );
#86 = ADVANCED_FACE( '', ( #114 ), #115, .F. );
#87 = ADVANCED_FACE( '', ( #116 ), #117, .F. );
#88 = ADVANCED_FACE( '', ( #118 ), #119, .T. );
#90 = FACE_OUTER_BOUND( '', #120, .T. );
#91 = TOROIDAL_SURFACE( '', #121, 25.0000000000000, 12.5000000000000 );
#92 = FACE_OUTER_BOUND( '', #122, .T. );
#93 = TOROIDAL_SURFACE( '', #123, 25.0000000000000, 10.6000000000000 );
#94 = FACE_OUTER_BOUND( '', #124, .T. );
#95 = CYLINDRICAL_SURFACE( '', #125, 10.6000000000000 );
#96 = FACE_OUTER_BOUND( '', #126, .T. );
#97 = CYLINDRICAL_SURFACE( '', #127, 12.5000000000000 );
#98 = FACE_OUTER_BOUND( '', #128, .T. );
#99 = CYLINDRICAL_SURFACE( '', #129, 12.5000000000000 );
#100 = FACE_OUTER_BOUND( '', #130, .T. );
#101 = CYLINDRICAL_SURFACE( '', #131, 10.6000000000000 );
#102 = FACE_OUTER_BOUND( '', #132, .T. );
#103 = CYLINDRICAL_SURFACE( '', #133, 10.6000000000000 );
#104 = FACE_OUTER_BOUND( '', #134, .T. );
#105 = CYLINDRICAL_SURFACE( '', #135, 12.5000000000000 );
#106 = FACE_BOUND( '', #136, .T. );
#107 = FACE_OUTER_BOUND( '', #137, .T. );
#108 = PLANE( '', #138 );
#109 = FACE_OUTER_BOUND( '', #139, .T. );
#110 = FACE_BOUND( '', #140, .T. );
#111 = PLANE( '', #141 );
#112 = FACE_OUTER_BOUND( '', #142, .T. );
#113 = CYLINDRICAL_SURFACE( '', #143, 12.5000000000000 );
#114 = FACE_OUTER_BOUND( '', #144, .T. );
#115 = CYLINDRICAL_SURFACE( '', #145, 10.6000000000000 );
#116 = FACE_OUTER_BOUND( '', #146, .T. );
#117 = TOROIDAL_SURFACE( '', #147, 25.0000000000000, 10.6000000000000 );
#118 = FACE_OUTER_BOUND( '', #148, .T. );
#119 = TOROIDAL_SURFACE( '', #149, 25.0000000000000, 12.5000000000000 );
#120 = EDGE_LOOP( '', ( #150, #151, #152, #153 ) );
#121 = AXIS2_PLACEMENT_3D( '', #154, #155, #156 );
#122 = EDGE_LOOP( '', ( #157, #158, #159, #160 ) );
#123 = AXIS2_PLACEMENT_3D( '', #161, #162, #163 );
#124 = EDGE_LOOP( '', ( #164, #165, #166, #167 ) );
#125 = AXIS2_PLACEMENT_3D( '', #168, #169, #170 );
#126 = EDGE_LOOP( '', ( #171, #172, #173, #174 ) );
#127 = AXIS2_PLACEMENT_3D( '', #175, #176, #177 );
#128 = EDGE_LOOP( '', ( #178, #179, #180, #181 ) );
#129 = AXIS2_PLACEMENT_3D( '', #182, #183, #184 );
#130 = EDGE_LOOP( '', ( #185, #186, #187, #188 ) );
#131 = AXIS2_PLACEMENT_3D( '', #189, #190, #191 );
#132 = EDGE_LOOP( '', ( #192, #193, #194, #195 ) );
#133 = AXIS2_PLACEMENT_3D( '', #196, #197, #198 );
#134 = EDGE_LOOP( '', ( #199, #200, #201, #202 ) );
#135 = AXIS2_PLACEMENT_3D( '', #203, #204, #205 );
#136 = EDGE_LOOP( '', ( #206, #207 ) );
#137 = EDGE_LOOP( '', ( #208, #209 ) );
#138 = AXIS2_PLACEMENT_3D( '', #210, #211, #212 );
#139 = EDGE_LOOP( '', ( #213, #214 ) );
#140 = EDGE_LOOP( '', ( #215, #216 ) );
#141 = AXIS2_PLACEMENT_3D( '', #217, #218, #219 );
#142 = EDGE_LOOP( '', ( #220, #221, #222, #223 ) );
#143 = AXIS2_PLACEMENT_3D( '', #224, #225, #226 );
#144 = EDGE_LOOP( '', ( #227, #228, #229, #230 ) );
#145 = AXIS2_PLACEMENT_3D( '', #231, #232, #233 );
#146 = EDGE_LOOP( '', ( #234, #235, #236, #237 ) );
#147 = AXIS2_PLACEMENT_3D( '', #238, #239, #240 );
#148 = EDGE_LOOP( '', ( #241, #242, #243, #244 ) );
#149 = AXIS2_PLACEMENT_3D( '', #245, #246, #247 );
#150 = ORIENTED_EDGE( '', *, *, #248, .F. );
#151 = ORIENTED_EDGE( '', *, *, #249, .F. );
#152 = ORIENTED_EDGE( '', *, *, #250, .F. );
#153 = ORIENTED_EDGE( '', *, *, #251, .T. );
#154 = CARTESIAN_POINT( '', ( 25.0000000000000, 31.0000000000000, 0.000000000000000 ) );
#155 = DIRECTION( '', ( 0.000000000000000, 0.000000000000000, 1.00000000000000 ) );
#156 = DIRECTION( '', ( 1.00000000000000, 0.000000000000000, 0.000000000000000 ) );
#157 = ORIENTED_EDGE( '', *, *, #252, .F. );
#158 = ORIENTED_EDGE( '', *, *, #253, .T. );
#159 = ORIENTED_EDGE( '', *, *, #254, .F. );
#160 = ORIENTED_EDGE( '', *, *, #255, .T. );
#161 = CARTESIAN_POINT( '', ( 25.0000000000000, 31.0000000000000, 0.000000000000000 ) );
#162 = DIRECTION( '', ( 0.000000000000000, 0.000000000000000, 1.00000000000000 ) );
#163 = DIRECTION( '', ( 1.00000000000000, 0.000000000000000, 0.000000000000000 ) );
#164 = ORIENTED_EDGE( '', *, *, #256, .F. );
#165 = ORIENTED_EDGE( '', *, *, #257, .F. );
#166 = ORIENTED_EDGE( '', *, *, #258, .F. );
#167 = ORIENTED_EDGE( '', *, *, #253, .F. );
#168 = CARTESIAN_POINT( '', ( 40.5000000000000, 56.0000000000000, 0.000000000000000 ) );
#169 = DIRECTION( '', ( 1.00000000000000, 0.000000000000000, 0.000000000000000 ) );
#170 = DIRECTION( '', ( 0.000000000000000, 1.00000000000000, -2.44921270764476E-016 ) );
#171 = ORIENTED_EDGE( '', *, *, #259, .F. );
#172 = ORIENTED_EDGE( '', *, *, #260, .T. );
#173 = ORIENTED_EDGE( '', *, *, #261, .F. );
#174 = ORIENTED_EDGE( '', *, *, #249, .T. );
#175 = CARTESIAN_POINT( '', ( 40.5000000000000, 56.0000000000000, 0.000000000000000 ) );
#176 = DIRECTION( '', ( 1.00000000000000, 0.000000000000000, 0.000000000000000 ) );
#177 = DIRECTION( '', ( 0.000000000000000, 1.00000000000000, -2.44921270764476E-016 ) );
#178 = ORIENTED_EDGE( '', *, *, #262, .F. );
#179 = ORIENTED_EDGE( '', *, *, #251, .F. );
#180 = ORIENTED_EDGE( '', *, *, #263, .F. );
#181 = ORIENTED_EDGE( '', *, *, #264, .F. );
#182 = CARTESIAN_POINT( '', ( 0.000000000000000, 15.5000000000000, 0.000000000000000 ) );
#183 = DIRECTION( '', ( 0.000000000000000, 1.00000000000000, 0.000000000000000 ) );
#184 = DIRECTION( '', ( -1.00000000000000, 0.000000000000000, -2.44921270764475E-016 ) );
#185 = ORIENTED_EDGE( '', *, *, #265, .F. );
#186 = ORIENTED_EDGE( '', *, *, #255, .F. );
#187 = ORIENTED_EDGE( '', *, *, #266, .F. );
#188 = ORIENTED_EDGE( '', *, *, #267, .T. );
#189 = CARTESIAN_POINT( '', ( 0.000000000000000, 15.5000000000000, 0.000000000000000 ) );
#190 = DIRECTION( '', ( 0.000000000000000, 1.00000000000000, 0.000000000000000 ) );
#191 = DIRECTION( '', ( -1.00000000000000, 0.000000000000000, -2.44921270764475E-016 ) );
#192 = ORIENTED_EDGE( '', *, *, #265, .T. );
#193 = ORIENTED_EDGE( '', *, *, #268, .T. );
#194 = ORIENTED_EDGE( '', *, *, #266, .T. );
#195 = ORIENTED_EDGE( '', *, *, #269, .F. );
#196 = CARTESIAN_POINT( '', ( 0.000000000000000, 15.5000000000000, 0.000000000000000 ) );
#197 = DIRECTION( '', ( 0.000000000000000, 1.00000000000000, 0.000000000000000 ) );
#198 = DIRECTION( '', ( -1.00000000000000, 0.000000000000000, -2.44921270764475E-016 ) );
#199 = ORIENTED_EDGE( '', *, *, #262, .T. );
#200 = ORIENTED_EDGE( '', *, *, #270, .F. );
#201 = ORIENTED_EDGE( '', *, *, #263, .T. );
#202 = ORIENTED_EDGE( '', *, *, #271, .F. );
#203 = CARTESIAN_POINT( '', ( 0.000000000000000, 15.5000000000000, 0.000000000000000 ) );
#204 = DIRECTION( '', ( 0.000000000000000, 1.00000000000000, 0.000000000000000 ) );
#205 = DIRECTION( '', ( -1.00000000000000, 0.000000000000000, -2.44921270764475E-016 ) );
#206 = ORIENTED_EDGE( '', *, *, #268, .F. );
#207 = ORIENTED_EDGE( '', *, *, #267, .F. );
#208 = ORIENTED_EDGE( '', *, *, #264, .T. );
#209 = ORIENTED_EDGE( '', *, *, #270, .T. );
#210 = CARTESIAN_POINT( '', ( -11.5500000000000, 0.000000000000000, -2.82884067732969E-015 ) );
#211 = DIRECTION( '', ( 0.000000000000000, -1.00000000000000, 0.000000000000000 ) );
#212 = DIRECTION( '', ( -1.00000000000000, 0.000000000000000, -2.44921270764475E-016 ) );
#213 = ORIENTED_EDGE( '', *, *, #260, .F. );
#214 = ORIENTED_EDGE( '', *, *, #272, .F. );
#215 = ORIENTED_EDGE( '', *, *, #273, .T. );
#216 = ORIENTED_EDGE( '', *, *, #257, .T. );
#217 = CARTESIAN_POINT( '', ( 56.0000000000000, 67.5500000000000, -2.82884067732969E-015 ) );
#218 = DIRECTION( '', ( 1.00000000000000, 0.000000000000000, 0.000000000000000 ) );
#219 = DIRECTION( '', ( 0.000000000000000, -1.00000000000000, 2.44921270764475E-016 ) );
#220 = ORIENTED_EDGE( '', *, *, #259, .T. );
#221 = ORIENTED_EDGE( '', *, *, #274, .T. );
#222 = ORIENTED_EDGE( '', *, *, #261, .T. );
#223 = ORIENTED_EDGE( '', *, *, #272, .T. );
#224 = CARTESIAN_POINT( '', ( 40.5000000000000, 56.0000000000000, 0.000000000000000 ) );
#225 = DIRECTION( '', ( 1.00000000000000, 0.000000000000000, 0.000000000000000 ) );
#226 = DIRECTION( '', ( 0.000000000000000, 1.00000000000000, -2.44921270764476E-016 ) );
#227 = ORIENTED_EDGE( '', *, *, #256, .T. );
#228 = ORIENTED_EDGE( '', *, *, #275, .F. );
#229 = ORIENTED_EDGE( '', *, *, #258, .T. );
#230 = ORIENTED_EDGE( '', *, *, #273, .F. );
#231 = CARTESIAN_POINT( '', ( 40.5000000000000, 56.0000000000000, 0.000000000000000 ) );
#232 = DIRECTION( '', ( 1.00000000000000, 0.000000000000000, 0.000000000000000 ) );
#233 = DIRECTION( '', ( 0.000000000000000, 1.00000000000000, -2.44921270764476E-016 ) );
#234 = ORIENTED_EDGE( '', *, *, #252, .T. );
#235 = ORIENTED_EDGE( '', *, *, #269, .T. );
#236 = ORIENTED_EDGE( '', *, *, #254, .T. );
#237 = ORIENTED_EDGE( '', *, *, #275, .T. );
#238 = CARTESIAN_POINT( '', ( 25.0000000000000, 31.0000000000000, 0.000000000000000 ) );
#239 = DIRECTION( '', ( 0.000000000000000, 0.000000000000000, 1.00000000000000 ) );
#240 = DIRECTION( '', ( 1.00000000000000, 0.000000000000000, 0.000000000000000 ) );
#241 = ORIENTED_EDGE( '', *, *, #248, .T. );
#242 = ORIENTED_EDGE( '', *, *, #271, .T. );
#243 = ORIENTED_EDGE( '', *, *, #250, .T. );
#244 = ORIENTED_EDGE( '', *, *, #274, .F. );
#245 = CARTESIAN_POINT( '', ( 25.0000000000000, 31.0000000000000, 0.000000000000000 ) );
#246 = DIRECTION( '', ( 0.000000000000000, 0.000000000000000, 1.00000000000000 ) );
#247 = DIRECTION( '', ( 1.00000000000000, 0.000000000000000, 0.000000000000000 ) );
#248 = EDGE_CURVE( '', #276, #277, #278, .T. );
#249 = EDGE_CURVE( '', #279, #276, #280, .T. );
#250 = EDGE_CURVE( '', #281, #279, #282, .T. );
#251 = EDGE_CURVE( '', #281, #277, #283, .T. );
#252 = EDGE_CURVE( '', #284, #285, #286, .T. );
#253 = EDGE_CURVE( '', #284, #287, #288, .T. );
#254 = EDGE_CURVE( '', #289, #287, #290, .T. );
#255 = EDGE_CURVE( '', #289, #285, #291, .T. );
#256 = EDGE_CURVE( '', #292, #284, #293, .T. );
#257 = EDGE_CURVE( '', #294, #292, #295, .T. );
#258 = EDGE_CURVE( '', #287, #294, #296, .T. );
#259 = EDGE_CURVE( '', #297, #276, #298, .T. );
#260 = EDGE_CURVE( '', #297, #299, #300, .T. );
#261 = EDGE_CURVE( '', #279, #299, #301, .T. );
#262 = EDGE_CURVE( '', #277, #302, #303, .T. );
#263 = EDGE_CURVE( '', #304, #281, #305, .T. );
#264 = EDGE_CURVE( '', #302, #304, #306, .T. );
#265 = EDGE_CURVE( '', #285, #307, #308, .T. );
#266 = EDGE_CURVE( '', #309, #289, #310, .T. );
#267 = EDGE_CURVE( '', #309, #307, #311, .T. );
#268 = EDGE_CURVE( '', #307, #309, #312, .T. );
#269 = EDGE_CURVE( '', #285, #289, #313, .T. );
#270 = EDGE_CURVE( '', #304, #302, #314, .T. );
#271 = EDGE_CURVE( '', #277, #281, #315, .T. );
#272 = EDGE_CURVE( '', #299, #297, #316, .T. );
#273 = EDGE_CURVE( '', #292, #294, #317, .T. );
#274 = EDGE_CURVE( '', #276, #279, #318, .T. );
#275 = EDGE_CURVE( '', #287, #284, #319, .T. );
#276 = VERTEX_POINT( '', #320 );
#277 = VERTEX_POINT( '', #321 );
#278 = CIRCLE( '', #322, 37.5000000000000 );
#279 = VERTEX_POINT( '', #323 );
#280 = CIRCLE( '', #324, 12.5000000000000 );
#281 = VERTEX_POINT( '', #325 );
#282 = CIRCLE( '', #326, 12.5000000000000 );
#283 = CIRCLE( '', #327, 12.5000000000000 );
#284 = VERTEX_POINT( '', #328 );
#285 = VERTEX_POINT( '', #329 );
#286 = CIRCLE( '', #330, 35.6000000000000 );
#287 = VERTEX_POINT( '', #331 );
#288 = CIRCLE( '', #332, 10.6000000000000 );
#289 = VERTEX_POINT( '', #333 );
#290 = CIRCLE( '', #334, 14.4000000000000 );
#291 = CIRCLE( '', #335, 10.6000000000000 );
#292 = VERTEX_POINT( '', #336 );
#293 = LINE( '', #337, #338 );
#294 = VERTEX_POINT( '', #339 );
#295 = CIRCLE( '', #340, 10.6000000000000 );
#296 = LINE( '', #341, #342 );
#297 = VERTEX_POINT( '', #343 );
#298 = LINE( '', #344, #345 );
#299 = VERTEX_POINT( '', #346 );
#300 = CIRCLE( '', #347, 12.5000000000000 );
#301 = LINE( '', #348, #349 );
#302 = VERTEX_POINT( '', #350 );
#303 = LINE( '', #351, #352 );
#304 = VERTEX_POINT( '', #353 );
#305 = LINE( '', #354, #355 );
#306 = CIRCLE( '', #356, 12.5000000000000 );
#307 = VERTEX_POINT( '', #357 );
#308 = LINE( '', #358, #359 );
#309 = VERTEX_POINT( '', #360 );
#310 = LINE( '', #361, #362 );
#311 = CIRCLE( '', #363, 10.6000000000000 );
#312 = CIRCLE( '', #364, 10.6000000000000 );
#313 = CIRCLE( '', #365, 10.6000000000000 );
#314 = CIRCLE( '', #366, 12.5000000000000 );
#315 = CIRCLE( '', #367, 12.5000000000000 );
#316 = CIRCLE( '', #368, 12.5000000000000 );
#317 = CIRCLE( '', #369, 10.6000000000000 );
#318 = CIRCLE( '', #370, 12.5000000000000 );
#319 = CIRCLE( '', #371, 10.6000000000000 );
#320 = CARTESIAN_POINT( '', ( 25.0000000000000, 68.5000000000000, -1.53075794227797E-015 ) );
#321 = CARTESIAN_POINT( '', ( -12.5000000000000, 31.0000000000000, -1.53075794227797E-015 ) );
#322 = AXIS2_PLACEMENT_3D( '', #372, #373, #374 );
#323 = CARTESIAN_POINT( '', ( 25.0000000000000, 43.5000000000000, 0.000000000000000 ) );
#324 = AXIS2_PLACEMENT_3D( '', #375, #376, #377 );
#325 = CARTESIAN_POINT( '', ( 12.5000000000000, 31.0000000000000, 0.000000000000000 ) );
#326 = AXIS2_PLACEMENT_3D( '', #378, #379, #380 );
#327 = AXIS2_PLACEMENT_3D( '', #381, #382, #383 );
#328 = CARTESIAN_POINT( '', ( 25.0000000000000, 66.6000000000000, -1.29808273505172E-015 ) );
#329 = CARTESIAN_POINT( '', ( -10.6000000000000, 31.0000000000000, -1.29808273505172E-015 ) );
#330 = AXIS2_PLACEMENT_3D( '', #384, #385, #386 );
#331 = CARTESIAN_POINT( '', ( 25.0000000000000, 45.4000000000000, 0.000000000000000 ) );
#332 = AXIS2_PLACEMENT_3D( '', #387, #388, #389 );
#333 = CARTESIAN_POINT( '', ( 10.6000000000000, 31.0000000000000, 0.000000000000000 ) );
#334 = AXIS2_PLACEMENT_3D( '', #390, #391, #392 );
#335 = AXIS2_PLACEMENT_3D( '', #393, #394, #395 );
#336 = CARTESIAN_POINT( '', ( 56.0000000000000, 66.6000000000000, -2.59616547010344E-015 ) );
#337 = CARTESIAN_POINT( '', ( 40.5000000000000, 66.6000000000000, -1.29808273505172E-015 ) );
#338 = VECTOR( '', #396, 1.00000000000000 );
#339 = CARTESIAN_POINT( '', ( 56.0000000000000, 45.4000000000000, 1.29808273505172E-015 ) );
#340 = AXIS2_PLACEMENT_3D( '', #397, #398, #399 );
#341 = CARTESIAN_POINT( '', ( 40.5000000000000, 45.4000000000000, 1.29808273505172E-015 ) );
#342 = VECTOR( '', #400, 1.00000000000000 );
#343 = CARTESIAN_POINT( '', ( 56.0000000000000, 68.5000000000000, -3.06151588455594E-015 ) );
#344 = CARTESIAN_POINT( '', ( 40.5000000000000, 68.5000000000000, -1.53075794227797E-015 ) );
#345 = VECTOR( '', #401, 1.00000000000000 );
#346 = CARTESIAN_POINT( '', ( 56.0000000000000, 43.5000000000000, 1.53075794227797E-015 ) );
#347 = AXIS2_PLACEMENT_3D( '', #402, #403, #404 );
#348 = CARTESIAN_POINT( '', ( 40.5000000000000, 43.5000000000000, 1.53075794227797E-015 ) );
#349 = VECTOR( '', #405, 1.00000000000000 );
#350 = CARTESIAN_POINT( '', ( -12.5000000000000, 0.000000000000000, -3.06151588455594E-015 ) );
#351 = CARTESIAN_POINT( '', ( -12.5000000000000, 15.5000000000000, -1.53075794227797E-015 ) );
#352 = VECTOR( '', #406, 1.00000000000000 );
#353 = CARTESIAN_POINT( '', ( 12.5000000000000, 0.000000000000000, 1.53075794227797E-015 ) );
#354 = CARTESIAN_POINT( '', ( 12.5000000000000, 15.5000000000000, 1.53075794227797E-015 ) );
#355 = VECTOR( '', #407, 1.00000000000000 );
#356 = AXIS2_PLACEMENT_3D( '', #408, #409, #410 );
#357 = CARTESIAN_POINT( '', ( -10.6000000000000, 0.000000000000000, -2.59616547010344E-015 ) );
#358 = CARTESIAN_POINT( '', ( -10.6000000000000, 15.5000000000000, -1.29808273505172E-015 ) );
#359 = VECTOR( '', #411, 1.00000000000000 );
#360 = CARTESIAN_POINT( '', ( 10.6000000000000, 0.000000000000000, 1.29808273505172E-015 ) );
#361 = CARTESIAN_POINT( '', ( 10.6000000000000, 15.5000000000000, 1.29808273505172E-015 ) );
#362 = VECTOR( '', #412, 1.00000000000000 );
#363 = AXIS2_PLACEMENT_3D( '', #413, #414, #415 );
#364 = AXIS2_PLACEMENT_3D( '', #416, #417, #418 );
#365 = AXIS2_PLACEMENT_3D( '', #419, #420, #421 );
#366 = AXIS2_PLACEMENT_3D( '', #422, #423, #424 );
#367 = AXIS2_PLACEMENT_3D( '', #425, #426, #427 );
#368 = AXIS2_PLACEMENT_3D( '', #428, #429, #430 );
#369 = AXIS2_PLACEMENT_3D( '', #431, #432, #433 );
#370 = AXIS2_PLACEMENT_3D( '', #434, #435, #436 );
#371 = AXIS2_PLACEMENT_3D( '', #437, #438, #439 );
#372 = CARTESIAN_POINT( '', ( 25.0000000000000, 31.0000000000000, 1.53075794227797E-015 ) );
#373 = DIRECTION( '', ( 0.000000000000000, 0.000000000000000, 1.00000000000000 ) );
#374 = DIRECTION( '', ( 1.00000000000000, 0.000000000000000, 0.000000000000000 ) );
#375 = CARTESIAN_POINT( '', ( 25.0000000000000, 56.0000000000000, 0.000000000000000 ) );
#376 = DIRECTION( '', ( 1.00000000000000, 6.12303176911189E-017, 0.000000000000000 ) );
#377 = DIRECTION( '', ( 6.12303176911189E-017, -1.00000000000000, 0.000000000000000 ) );
#378 = CARTESIAN_POINT( '', ( 25.0000000000000, 31.0000000000000, 1.53075794227797E-015 ) );
#379 = DIRECTION( '', ( 0.000000000000000, 0.000000000000000, -1.00000000000000 ) );
#380 = DIRECTION( '', ( 1.00000000000000, 0.000000000000000, 0.000000000000000 ) );
#381 = CARTESIAN_POINT( '', ( 0.000000000000000, 31.0000000000000, -5.62848412476563E-016 ) );
#382 = DIRECTION( '', ( -6.12303176911189E-017, 1.00000000000000, 2.26331061469260E-017 ) );
#383 = DIRECTION( '', ( 1.00000000000000, 6.12303176911189E-017, 2.26331061469261E-017 ) );
#384 = CARTESIAN_POINT( '', ( 25.0000000000000, 31.0000000000000, 1.29808273505172E-015 ) );
#385 = DIRECTION( '', ( 0.000000000000000, 0.000000000000000, 1.00000000000000 ) );
#386 = DIRECTION( '', ( 1.00000000000000, 0.000000000000000, 0.000000000000000 ) );
#387 = CARTESIAN_POINT( '', ( 25.0000000000000, 56.0000000000000, 0.000000000000000 ) );
#388 = DIRECTION( '', ( 1.00000000000000, 6.12303176911189E-017, 0.000000000000000 ) );
#389 = DIRECTION( '', ( 6.12303176911189E-017, -1.00000000000000, 0.000000000000000 ) );
#390 = CARTESIAN_POINT( '', ( 25.0000000000000, 31.0000000000000, 1.29808273505172E-015 ) );
#391 = DIRECTION( '', ( 0.000000000000000, 0.000000000000000, -1.00000000000000 ) );
#392 = DIRECTION( '', ( 1.00000000000000, 0.000000000000000, 0.000000000000000 ) );
#393 = CARTESIAN_POINT( '', ( 0.000000000000000, 31.0000000000000, -5.62848412476563E-016 ) );
#394 = DIRECTION( '', ( 6.12303176911189E-017, -1.00000000000000, -2.26331061469260E-017 ) );
#395 = DIRECTION( '', ( 1.00000000000000, 6.12303176911189E-017, 2.26331061469261E-017 ) );
#396 = DIRECTION( '', ( -1.00000000000000, 0.000000000000000, 0.000000000000000 ) );
#397 = CARTESIAN_POINT( '', ( 56.0000000000000, 56.0000000000000, 0.000000000000000 ) );
#398 = DIRECTION( '', ( -1.00000000000000, 0.000000000000000, 0.000000000000000 ) );
#399 = DIRECTION( '', ( 0.000000000000000, 1.00000000000000, -2.44921270764476E-016 ) );
#400 = DIRECTION( '', ( 1.00000000000000, 0.000000000000000, 0.000000000000000 ) );
#401 = DIRECTION( '', ( -1.00000000000000, 0.000000000000000, 0.000000000000000 ) );
#402 = CARTESIAN_POINT( '', ( 56.0000000000000, 56.0000000000000, 0.000000000000000 ) );
#403 = DIRECTION( '', ( -1.00000000000000, 0.000000000000000, 0.000000000000000 ) );
#404 = DIRECTION( '', ( 0.000000000000000, 1.00000000000000, -2.44921270764476E-016 ) );
#405 = DIRECTION( '', ( 1.00000000000000, 0.000000000000000, 0.000000000000000 ) );
#406 = DIRECTION( '', ( 0.000000000000000, -1.00000000000000, 0.000000000000000 ) );
#407 = DIRECTION( '', ( 0.000000000000000, 1.00000000000000, 0.000000000000000 ) );
#408 = CARTESIAN_POINT( '', ( 0.000000000000000, 0.000000000000000, 0.000000000000000 ) );
#409 = DIRECTION( '', ( 0.000000000000000, -1.00000000000000, 0.000000000000000 ) );
#410 = DIRECTION( '', ( -1.00000000000000, 0.000000000000000, -2.44921270764475E-016 ) );
#411 = DIRECTION( '', ( 0.000000000000000, -1.00000000000000, 0.000000000000000 ) );
#412 = DIRECTION( '', ( 0.000000000000000, 1.00000000000000, 0.000000000000000 ) );
#413 = CARTESIAN_POINT( '', ( 0.000000000000000, 0.000000000000000, 0.000000000000000 ) );
#414 = DIRECTION( '', ( 0.000000000000000, -1.00000000000000, 0.000000000000000 ) );
#415 = DIRECTION( '', ( -1.00000000000000, 0.000000000000000, -2.44921270764475E-016 ) );
#416 = CARTESIAN_POINT( '', ( 0.000000000000000, 0.000000000000000, 0.000000000000000 ) );
#417 = DIRECTION( '', ( 0.000000000000000, -1.00000000000000, 0.000000000000000 ) );
#418 = DIRECTION( '', ( -1.00000000000000, 0.000000000000000, -2.44921270764475E-016 ) );
#419 = CARTESIAN_POINT( '', ( 0.000000000000000, 31.0000000000000, -5.62848412476563E-016 ) );
#420 = DIRECTION( '', ( 6.12303176911189E-017, -1.00000000000000, -2.26331061469260E-017 ) );
#421 = DIRECTION( '', ( 1.00000000000000, 6.12303176911189E-017, 2.26331061469261E-017 ) );
#422 = CARTESIAN_POINT( '', ( 0.000000000000000, 0.000000000000000, 0.000000000000000 ) );
#423 = DIRECTION( '', ( 0.000000000000000, -1.00000000000000, 0.000000000000000 ) );
#424 = DIRECTION( '', ( -1.00000000000000, 0.000000000000000, -2.44921270764475E-016 ) );
#425 = CARTESIAN_POINT( '', ( 0.000000000000000, 31.0000000000000, -5.62848412476563E-016 ) );
#426 = DIRECTION( '', ( -6.12303176911189E-017, 1.00000000000000, 2.26331061469260E-017 ) );
#427 = DIRECTION( '', ( 1.00000000000000, 6.12303176911189E-017, 2.26331061469261E-017 ) );
#428 = CARTESIAN_POINT( '', ( 56.0000000000000, 56.0000000000000, 0.000000000000000 ) );
#429 = DIRECTION( '', ( -1.00000000000000, 0.000000000000000, 0.000000000000000 ) );
#430 = DIRECTION( '', ( 0.000000000000000, 1.00000000000000, -2.44921270764476E-016 ) );
#431 = CARTESIAN_POINT( '', ( 56.0000000000000, 56.0000000000000, 0.000000000000000 ) );
#432 = DIRECTION( '', ( -1.00000000000000, 0.000000000000000, 0.000000000000000 ) );
#433 = DIRECTION( '', ( 0.000000000000000, 1.00000000000000, -2.44921270764476E-016 ) );
#434 = CARTESIAN_POINT( '', ( 25.0000000000000, 56.0000000000000, 0.000000000000000 ) );
#435 = DIRECTION( '', ( 1.00000000000000, 6.12303176911189E-017, 0.000000000000000 ) );
#436 = DIRECTION( '', ( 6.12303176911189E-017, -1.00000000000000, 0.000000000000000 ) );
#437 = CARTESIAN_POINT( '', ( 25.0000000000000, 56.0000000000000, 0.000000000000000 ) );
#438 = DIRECTION( '', ( 1.00000000000000, 6.12303176911189E-017, 0.000000000000000 ) );
#439 = DIRECTION( '', ( 6.12303176911189E-017, -1.00000000000000, 0.000000000000000 ) );
ENDSEC;
END-ISO-10303-21;
