ISO-10303-21;
HEADER;
FILE_DESCRIPTION( ( '' ), '1' );
FILE_NAME( 'R:/Engineering/Parts CD files/Industrial & Dual Contained/Halar/EXT LEG CONC RED/AGRU_40067503221_ECTFE natur_Reduktion konzentrisch_50_32  SDR21  ISO S-10_110.stp', '2011-12-29T15:55:11', ( '' ), ( '' ), ' ', ' ', ' ' );
FILE_SCHEMA( ( 'CONFIG_CONTROL_DESIGN' ) );
ENDSEC;
DATA;
#1 = DESIGN_CONTEXT( '', #27, 'design' );
#2 = APPLICATION_PROTOCOL_DEFINITION( 'INTERNATIONAL STANDARD', 'config_control_design', 1994, #27 );
#3 = PRODUCT_CATEGORY_RELATIONSHIP( 'NONE', 'NONE', #28, #29 );
#4 = DATE_AND_TIME( #30, #31 );
#5 = DATE_TIME_ROLE( 'creation_date' );
#6 = DATE_TIME_ROLE( 'classification_date' );
#7 = PERSON_AND_ORGANIZATION_ROLE( 'creator' );
#8 = PERSON_AND_ORGANIZATION_ROLE( 'design_supplier' );
#9 = PERSON_AND_ORGANIZATION_ROLE( 'classification_officer' );
#10 = PERSON_AND_ORGANIZATION_ROLE( 'design_owner' );
#11 = APPROVAL_PERSON_ORGANIZATION( #32, #33, #34 );
#12 = APPROVAL_DATE_TIME( #4, #33 );
#13 = CC_DESIGN_APPROVAL( #33, ( #35, #36, #37 ) );
#14 = CC_DESIGN_DATE_AND_TIME_ASSIGNMENT( #4, #5, ( #37 ) );
#15 = CC_DESIGN_DATE_AND_TIME_ASSIGNMENT( #4, #6, ( #35 ) );
#16 = CC_DESIGN_PERSON_AND_ORGANIZATION_ASSIGNMENT( #32, #10, ( #38 ) );
#17 = CC_DESIGN_PERSON_AND_ORGANIZATION_ASSIGNMENT( #32, #7, ( #37 ) );
#18 = CC_DESIGN_PERSON_AND_ORGANIZATION_ASSIGNMENT( #32, #7, ( #36 ) );
#19 = CC_DESIGN_PERSON_AND_ORGANIZATION_ASSIGNMENT( #32, #8, ( #36 ) );
#20 = CC_DESIGN_SECURITY_CLASSIFICATION( #35, ( #36 ) );
#21 = CC_DESIGN_PERSON_AND_ORGANIZATION_ASSIGNMENT( #32, #9, ( #35 ) );
#22 = SHAPE_DEFINITION_REPRESENTATION( #39, #40 );
#23 =  ( GEOMETRIC_REPRESENTATION_CONTEXT( 3 )GLOBAL_UNCERTAINTY_ASSIGNED_CONTEXT( ( #43 ) )GLOBAL_UNIT_ASSIGNED_CONTEXT( ( #45, #46, #47 ) )REPRESENTATION_CONTEXT( 'NONE', 'WORKSPACE' ) );
#27 = APPLICATION_CONTEXT( 'CONFIGURATION CONTROLLED 3D DESIGNS OF MECHANICAL PARTS AND ASSEMBLIES' );
#28 = PRODUCT_CATEGORY( 'part', 'NONE' );
#29 = PRODUCT_RELATED_PRODUCT_CATEGORY( 'detail', ' ', ( #38 ) );
#30 = CALENDAR_DATE( 2011, 29, 11 );
#31 = LOCAL_TIME( 10, 55, 11.0000000000000, #49 );
#32 = PERSON_AND_ORGANIZATION( #50, #51 );
#33 = APPROVAL( #52, 'SOLID MODEL' );
#34 = APPROVAL_ROLE( 'APPROVED' );
#35 = SECURITY_CLASSIFICATION( '', '', #53 );
#36 = PRODUCT_DEFINITION_FORMATION_WITH_SPECIFIED_SOURCE( ' ', 'NONE', #38, .NOT_KNOWN. );
#37 = PRODUCT_DEFINITION( 'NONE', 'NONE', #36, #1 );
#38 = PRODUCT( '1', '1', 'PART-1-DESC', ( #54 ) );
#39 = PRODUCT_DEFINITION_SHAPE( 'NONE', 'NONE', #37 );
#40 = ADVANCED_BREP_SHAPE_REPRESENTATION( '1', ( #55, #56 ), #23 );
#43 = UNCERTAINTY_MEASURE_WITH_UNIT( LENGTH_MEASURE( 1.00000000000000E-006 ), #45, '', '' );
#45 =  ( CONVERSION_BASED_UNIT( 'MILLIMETRE', #59 )LENGTH_UNIT(  )NAMED_UNIT( #62 ) );
#46 =  ( NAMED_UNIT( #64 )PLANE_ANGLE_UNIT(  )SI_UNIT( $, .RADIAN. ) );
#47 =  ( NAMED_UNIT( #64 )SOLID_ANGLE_UNIT(  )SI_UNIT( $, .STERADIAN. ) );
#49 = COORDINATED_UNIVERSAL_TIME_OFFSET( 5, 0, .BEHIND. );
#50 = PERSON( '', 'UNSPECIFIED', $, $, $, $ );
#51 = ORGANIZATION( 'UNSPECIFIED', 'UNSPECIFIED', 'UNSPECIFIED' );
#52 = APPROVAL_STATUS( 'approved' );
#53 = SECURITY_CLASSIFICATION_LEVEL( 'unclassified' );
#54 = MECHANICAL_CONTEXT( '', #27, 'mechanical' );
#55 = MANIFOLD_SOLID_BREP( '1', #70 );
#56 = AXIS2_PLACEMENT_3D( '', #71, #72, #73 );
#59 = LENGTH_MEASURE_WITH_UNIT( LENGTH_MEASURE( 1.00000000000000 ), #74 );
#62 = DIMENSIONAL_EXPONENTS( 1.00000000000000, 0.000000000000000, 0.000000000000000, 0.000000000000000, 0.000000000000000, 0.000000000000000, 0.000000000000000 );
#64 = DIMENSIONAL_EXPONENTS( 0.000000000000000, 0.000000000000000, 0.000000000000000, 0.000000000000000, 0.000000000000000, 0.000000000000000, 0.000000000000000 );
#70 = CLOSED_SHELL( '', ( #75, #76, #77, #78, #79, #80, #81, #82, #83, #84, #85, #86, #87, #88 ) );
#71 = CARTESIAN_POINT( '', ( 0.000000000000000, 0.000000000000000, 0.000000000000000 ) );
#72 = DIRECTION( '', ( 0.000000000000000, 0.000000000000000, 1.00000000000000 ) );
#73 = DIRECTION( '', ( 1.00000000000000, 0.000000000000000, 0.000000000000000 ) );
#74 =  ( NAMED_UNIT( #62 )LENGTH_UNIT(  )SI_UNIT( .MILLI., .METRE. ) );
#75 = ADVANCED_FACE( '', ( #90 ), #91, .F. );
#76 = ADVANCED_FACE( '', ( #92 ), #93, .T. );
#77 = ADVANCED_FACE( '', ( #94 ), #95, .T. );
#78 = ADVANCED_FACE( '', ( #96 ), #97, .T. );
#79 = ADVANCED_FACE( '', ( #98 ), #99, .F. );
#80 = ADVANCED_FACE( '', ( #100 ), #101, .F. );
#81 = ADVANCED_FACE( '', ( #102 ), #103, .F. );
#82 = ADVANCED_FACE( '', ( #104 ), #105, .F. );
#83 = ADVANCED_FACE( '', ( #106, #107 ), #108, .T. );
#84 = ADVANCED_FACE( '', ( #109 ), #110, .T. );
#85 = ADVANCED_FACE( '', ( #111 ), #112, .T. );
#86 = ADVANCED_FACE( '', ( #113 ), #114, .T. );
#87 = ADVANCED_FACE( '', ( #115, #116 ), #117, .T. );
#88 = ADVANCED_FACE( '', ( #118 ), #119, .F. );
#90 = FACE_OUTER_BOUND( '', #120, .T. );
#91 = CYLINDRICAL_SURFACE( '', #121, 20.4000000000000 );
#92 = FACE_OUTER_BOUND( '', #122, .T. );
#93 = CYLINDRICAL_SURFACE( '', #123, 25.0000000000000 );
#94 = FACE_OUTER_BOUND( '', #124, .T. );
#95 = CONICAL_SURFACE( '', #125, 20.5000000000000, 0.605544663604970 );
#96 = FACE_OUTER_BOUND( '', #126, .T. );
#97 = CYLINDRICAL_SURFACE( '', #127, 16.0000000000000 );
#98 = FACE_OUTER_BOUND( '', #128, .T. );
#99 = CYLINDRICAL_SURFACE( '', #129, 13.0000000000000 );
#100 = FACE_OUTER_BOUND( '', #130, .T. );
#101 = CONICAL_SURFACE( '', #131, 16.7000000000000, 0.517487740974109 );
#102 = FACE_OUTER_BOUND( '', #132, .T. );
#103 = CONICAL_SURFACE( '', #133, 16.7000000000000, 0.517487740974109 );
#104 = FACE_OUTER_BOUND( '', #134, .T. );
#105 = CYLINDRICAL_SURFACE( '', #135, 13.0000000000000 );
#106 = FACE_OUTER_BOUND( '', #136, .T. );
#107 = FACE_BOUND( '', #137, .T. );
#108 = PLANE( '', #138 );
#109 = FACE_OUTER_BOUND( '', #139, .T. );
#110 = CYLINDRICAL_SURFACE( '', #140, 16.0000000000000 );
#111 = FACE_OUTER_BOUND( '', #141, .T. );
#112 = CONICAL_SURFACE( '', #142, 20.5000000000000, 0.605544663604970 );
#113 = FACE_OUTER_BOUND( '', #143, .T. );
#114 = CYLINDRICAL_SURFACE( '', #144, 25.0000000000000 );
#115 = FACE_BOUND( '', #145, .T. );
#116 = FACE_OUTER_BOUND( '', #146, .T. );
#117 = PLANE( '', #147 );
#118 = FACE_OUTER_BOUND( '', #148, .T. );
#119 = CYLINDRICAL_SURFACE( '', #149, 20.4000000000000 );
#120 = EDGE_LOOP( '', ( #150, #151, #152, #153 ) );
#121 = AXIS2_PLACEMENT_3D( '', #154, #155, #156 );
#122 = EDGE_LOOP( '', ( #157, #158, #159, #160 ) );
#123 = AXIS2_PLACEMENT_3D( '', #161, #162, #163 );
#124 = EDGE_LOOP( '', ( #164, #165, #166, #167 ) );
#125 = AXIS2_PLACEMENT_3D( '', #168, #169, #170 );
#126 = EDGE_LOOP( '', ( #171, #172, #173, #174 ) );
#127 = AXIS2_PLACEMENT_3D( '', #175, #176, #177 );
#128 = EDGE_LOOP( '', ( #178, #179, #180, #181 ) );
#129 = AXIS2_PLACEMENT_3D( '', #182, #183, #184 );
#130 = EDGE_LOOP( '', ( #185, #186, #187, #188 ) );
#131 = AXIS2_PLACEMENT_3D( '', #189, #190, #191 );
#132 = EDGE_LOOP( '', ( #192, #193, #194, #195 ) );
#133 = AXIS2_PLACEMENT_3D( '', #196, #197, #198 );
#134 = EDGE_LOOP( '', ( #199, #200, #201, #202 ) );
#135 = AXIS2_PLACEMENT_3D( '', #203, #204, #205 );
#136 = EDGE_LOOP( '', ( #206, #207 ) );
#137 = EDGE_LOOP( '', ( #208, #209 ) );
#138 = AXIS2_PLACEMENT_3D( '', #210, #211, #212 );
#139 = EDGE_LOOP( '', ( #213, #214, #215, #216 ) );
#140 = AXIS2_PLACEMENT_3D( '', #217, #218, #219 );
#141 = EDGE_LOOP( '', ( #220, #221, #222, #223 ) );
#142 = AXIS2_PLACEMENT_3D( '', #224, #225, #226 );
#143 = EDGE_LOOP( '', ( #227, #228, #229, #230 ) );
#144 = AXIS2_PLACEMENT_3D( '', #231, #232, #233 );
#145 = EDGE_LOOP( '', ( #234, #235 ) );
#146 = EDGE_LOOP( '', ( #236, #237 ) );
#147 = AXIS2_PLACEMENT_3D( '', #238, #239, #240 );
#148 = EDGE_LOOP( '', ( #241, #242, #243, #244 ) );
#149 = AXIS2_PLACEMENT_3D( '', #245, #246, #247 );
#150 = ORIENTED_EDGE( '', *, *, #248, .F. );
#151 = ORIENTED_EDGE( '', *, *, #249, .F. );
#152 = ORIENTED_EDGE( '', *, *, #250, .F. );
#153 = ORIENTED_EDGE( '', *, *, #251, .T. );
#154 = CARTESIAN_POINT( '', ( 29.5000000000000, -2.66453525910038E-015, 0.000000000000000 ) );
#155 = DIRECTION( '', ( 1.00000000000000, 3.01077430406822E-017, -8.41802710691090E-049 ) );
#156 = DIRECTION( '', ( -3.01077430406822E-017, 1.00000000000000, -2.44921270764475E-016 ) );
#157 = ORIENTED_EDGE( '', *, *, #252, .F. );
#158 = ORIENTED_EDGE( '', *, *, #253, .T. );
#159 = ORIENTED_EDGE( '', *, *, #254, .F. );
#160 = ORIENTED_EDGE( '', *, *, #255, .F. );
#161 = CARTESIAN_POINT( '', ( 29.5000000000000, -2.66453525910038E-015, 0.000000000000000 ) );
#162 = DIRECTION( '', ( 1.00000000000000, 3.01077430406822E-017, 2.24207754291971E-048 ) );
#163 = DIRECTION( '', ( -3.01077430406822E-017, 1.00000000000000, -2.44921270764475E-016 ) );
#164 = ORIENTED_EDGE( '', *, *, #256, .F. );
#165 = ORIENTED_EDGE( '', *, *, #257, .T. );
#166 = ORIENTED_EDGE( '', *, *, #258, .F. );
#167 = ORIENTED_EDGE( '', *, *, #253, .F. );
#168 = CARTESIAN_POINT( '', ( 65.5000000000000, -1.58065650963582E-015, 0.000000000000000 ) );
#169 = DIRECTION( '', ( -1.00000000000000, -3.01077430406822E-017, 0.000000000000000 ) );
#170 = DIRECTION( '', ( -3.01077430406822E-017, 1.00000000000000, -2.44921270764475E-016 ) );
#171 = ORIENTED_EDGE( '', *, *, #259, .F. );
#172 = ORIENTED_EDGE( '', *, *, #260, .T. );
#173 = ORIENTED_EDGE( '', *, *, #261, .F. );
#174 = ORIENTED_EDGE( '', *, *, #257, .F. );
#175 = CARTESIAN_POINT( '', ( 95.0000000000000, -6.92478089935691E-016, 0.000000000000000 ) );
#176 = DIRECTION( '', ( 1.00000000000000, 3.01077430406822E-017, 0.000000000000000 ) );
#177 = DIRECTION( '', ( -3.01077430406822E-017, 1.00000000000000, -2.44921270764475E-016 ) );
#178 = ORIENTED_EDGE( '', *, *, #262, .F. );
#179 = ORIENTED_EDGE( '', *, *, #263, .F. );
#180 = ORIENTED_EDGE( '', *, *, #264, .F. );
#181 = ORIENTED_EDGE( '', *, *, #265, .T. );
#182 = CARTESIAN_POINT( '', ( 95.0000000000000, -6.92478089935691E-016, 0.000000000000000 ) );
#183 = DIRECTION( '', ( 1.00000000000000, 3.01077430406822E-017, -1.03646336118699E-048 ) );
#184 = DIRECTION( '', ( -3.01077430406822E-017, 1.00000000000000, -2.44921270764475E-016 ) );
#185 = ORIENTED_EDGE( '', *, *, #266, .F. );
#186 = ORIENTED_EDGE( '', *, *, #265, .F. );
#187 = ORIENTED_EDGE( '', *, *, #267, .F. );
#188 = ORIENTED_EDGE( '', *, *, #249, .T. );
#189 = CARTESIAN_POINT( '', ( 65.5000000000000, -1.58065650963582E-015, 0.000000000000000 ) );
#190 = DIRECTION( '', ( -1.00000000000000, -3.01077430406822E-017, 0.000000000000000 ) );
#191 = DIRECTION( '', ( -3.01077430406822E-017, 1.00000000000000, -2.44921270764475E-016 ) );
#192 = ORIENTED_EDGE( '', *, *, #266, .T. );
#193 = ORIENTED_EDGE( '', *, *, #268, .T. );
#194 = ORIENTED_EDGE( '', *, *, #267, .T. );
#195 = ORIENTED_EDGE( '', *, *, #269, .F. );
#196 = CARTESIAN_POINT( '', ( 65.5000000000000, -1.58065650963582E-015, 0.000000000000000 ) );
#197 = DIRECTION( '', ( -1.00000000000000, -3.01077430406822E-017, 0.000000000000000 ) );
#198 = DIRECTION( '', ( -3.01077430406822E-017, 1.00000000000000, -2.44921270764475E-016 ) );
#199 = ORIENTED_EDGE( '', *, *, #262, .T. );
#200 = ORIENTED_EDGE( '', *, *, #269, .T. );
#201 = ORIENTED_EDGE( '', *, *, #264, .T. );
#202 = ORIENTED_EDGE( '', *, *, #270, .F. );
#203 = CARTESIAN_POINT( '', ( 95.0000000000000, -6.92478089935691E-016, 0.000000000000000 ) );
#204 = DIRECTION( '', ( 1.00000000000000, 3.01077430406822E-017, -1.03646336118699E-048 ) );
#205 = DIRECTION( '', ( -3.01077430406822E-017, 1.00000000000000, -2.44921270764475E-016 ) );
#206 = ORIENTED_EDGE( '', *, *, #260, .F. );
#207 = ORIENTED_EDGE( '', *, *, #271, .F. );
#208 = ORIENTED_EDGE( '', *, *, #270, .T. );
#209 = ORIENTED_EDGE( '', *, *, #263, .T. );
#210 = CARTESIAN_POINT( '', ( 118.000000000000, 14.5000000000000, -3.55135842608489E-015 ) );
#211 = DIRECTION( '', ( 1.00000000000000, 1.80605598643300E-048, 7.37402668537418E-033 ) );
#212 = DIRECTION( '', ( 0.000000000000000, -1.00000000000000, 2.44921270764475E-016 ) );
#213 = ORIENTED_EDGE( '', *, *, #259, .T. );
#214 = ORIENTED_EDGE( '', *, *, #272, .F. );
#215 = ORIENTED_EDGE( '', *, *, #261, .T. );
#216 = ORIENTED_EDGE( '', *, *, #271, .T. );
#217 = CARTESIAN_POINT( '', ( 95.0000000000000, -6.92478089935691E-016, 0.000000000000000 ) );
#218 = DIRECTION( '', ( 1.00000000000000, 3.01077430406822E-017, 0.000000000000000 ) );
#219 = DIRECTION( '', ( -3.01077430406822E-017, 1.00000000000000, -2.44921270764475E-016 ) );
#220 = ORIENTED_EDGE( '', *, *, #256, .T. );
#221 = ORIENTED_EDGE( '', *, *, #273, .F. );
#222 = ORIENTED_EDGE( '', *, *, #258, .T. );
#223 = ORIENTED_EDGE( '', *, *, #272, .T. );
#224 = CARTESIAN_POINT( '', ( 65.5000000000000, -1.58065650963582E-015, 0.000000000000000 ) );
#225 = DIRECTION( '', ( -1.00000000000000, -3.01077430406822E-017, 0.000000000000000 ) );
#226 = DIRECTION( '', ( -3.01077430406822E-017, 1.00000000000000, -2.44921270764475E-016 ) );
#227 = ORIENTED_EDGE( '', *, *, #252, .T. );
#228 = ORIENTED_EDGE( '', *, *, #274, .F. );
#229 = ORIENTED_EDGE( '', *, *, #254, .T. );
#230 = ORIENTED_EDGE( '', *, *, #273, .T. );
#231 = CARTESIAN_POINT( '', ( 29.5000000000000, -2.66453525910038E-015, 0.000000000000000 ) );
#232 = DIRECTION( '', ( 1.00000000000000, 3.01077430406822E-017, 2.24207754291971E-048 ) );
#233 = DIRECTION( '', ( -3.01077430406822E-017, 1.00000000000000, -2.44921270764475E-016 ) );
#234 = ORIENTED_EDGE( '', *, *, #275, .F. );
#235 = ORIENTED_EDGE( '', *, *, #251, .F. );
#236 = ORIENTED_EDGE( '', *, *, #255, .T. );
#237 = ORIENTED_EDGE( '', *, *, #274, .T. );
#238 = CARTESIAN_POINT( '', ( 0.000000000000000, 22.7000000000000, -5.55971284635359E-015 ) );
#239 = DIRECTION( '', ( -1.00000000000000, -1.80605598643300E-048, -7.37402668537418E-033 ) );
#240 = DIRECTION( '', ( 0.000000000000000, 1.00000000000000, -2.44921270764475E-016 ) );
#241 = ORIENTED_EDGE( '', *, *, #248, .T. );
#242 = ORIENTED_EDGE( '', *, *, #275, .T. );
#243 = ORIENTED_EDGE( '', *, *, #250, .T. );
#244 = ORIENTED_EDGE( '', *, *, #268, .F. );
#245 = CARTESIAN_POINT( '', ( 29.5000000000000, -2.66453525910038E-015, 0.000000000000000 ) );
#246 = DIRECTION( '', ( 1.00000000000000, 3.01077430406822E-017, -8.41802710691090E-049 ) );
#247 = DIRECTION( '', ( -3.01077430406822E-017, 1.00000000000000, -2.44921270764475E-016 ) );
#248 = EDGE_CURVE( '', #276, #277, #278, .T. );
#249 = EDGE_CURVE( '', #279, #276, #280, .T. );
#250 = EDGE_CURVE( '', #281, #279, #282, .T. );
#251 = EDGE_CURVE( '', #281, #277, #283, .T. );
#252 = EDGE_CURVE( '', #284, #285, #286, .T. );
#253 = EDGE_CURVE( '', #284, #287, #288, .T. );
#254 = EDGE_CURVE( '', #289, #287, #290, .T. );
#255 = EDGE_CURVE( '', #285, #289, #291, .T. );
#256 = EDGE_CURVE( '', #292, #284, #293, .T. );
#257 = EDGE_CURVE( '', #292, #294, #295, .T. );
#258 = EDGE_CURVE( '', #287, #294, #296, .T. );
#259 = EDGE_CURVE( '', #297, #292, #298, .T. );
#260 = EDGE_CURVE( '', #297, #299, #300, .T. );
#261 = EDGE_CURVE( '', #294, #299, #301, .T. );
#262 = EDGE_CURVE( '', #302, #303, #304, .T. );
#263 = EDGE_CURVE( '', #305, #302, #306, .T. );
#264 = EDGE_CURVE( '', #307, #305, #308, .T. );
#265 = EDGE_CURVE( '', #307, #303, #309, .T. );
#266 = EDGE_CURVE( '', #303, #276, #310, .T. );
#267 = EDGE_CURVE( '', #279, #307, #311, .T. );
#268 = EDGE_CURVE( '', #276, #279, #312, .T. );
#269 = EDGE_CURVE( '', #303, #307, #313, .T. );
#270 = EDGE_CURVE( '', #302, #305, #314, .T. );
#271 = EDGE_CURVE( '', #299, #297, #315, .T. );
#272 = EDGE_CURVE( '', #294, #292, #316, .T. );
#273 = EDGE_CURVE( '', #287, #284, #317, .T. );
#274 = EDGE_CURVE( '', #289, #285, #318, .T. );
#275 = EDGE_CURVE( '', #277, #281, #319, .T. );
#276 = VERTEX_POINT( '', #320 );
#277 = VERTEX_POINT( '', #321 );
#278 = LINE( '', #322, #323 );
#279 = VERTEX_POINT( '', #324 );
#280 = CIRCLE( '', #325, 20.4000000000000 );
#281 = VERTEX_POINT( '', #326 );
#282 = LINE( '', #327, #328 );
#283 = CIRCLE( '', #329, 20.4000000000000 );
#284 = VERTEX_POINT( '', #330 );
#285 = VERTEX_POINT( '', #331 );
#286 = LINE( '', #332, #333 );
#287 = VERTEX_POINT( '', #334 );
#288 = CIRCLE( '', #335, 25.0000000000000 );
#289 = VERTEX_POINT( '', #336 );
#290 = LINE( '', #337, #338 );
#291 = CIRCLE( '', #339, 25.0000000000000 );
#292 = VERTEX_POINT( '', #340 );
#293 = LINE( '', #341, #342 );
#294 = VERTEX_POINT( '', #343 );
#295 = CIRCLE( '', #344, 16.0000000000000 );
#296 = LINE( '', #345, #346 );
#297 = VERTEX_POINT( '', #347 );
#298 = LINE( '', #348, #349 );
#299 = VERTEX_POINT( '', #350 );
#300 = CIRCLE( '', #351, 16.0000000000000 );
#301 = LINE( '', #352, #353 );
#302 = VERTEX_POINT( '', #354 );
#303 = VERTEX_POINT( '', #355 );
#304 = LINE( '', #356, #357 );
#305 = VERTEX_POINT( '', #358 );
#306 = CIRCLE( '', #359, 13.0000000000000 );
#307 = VERTEX_POINT( '', #360 );
#308 = LINE( '', #361, #362 );
#309 = CIRCLE( '', #363, 13.0000000000000 );
#310 = LINE( '', #364, #365 );
#311 = LINE( '', #366, #367 );
#312 = CIRCLE( '', #368, 20.4000000000000 );
#313 = CIRCLE( '', #369, 13.0000000000000 );
#314 = CIRCLE( '', #370, 13.0000000000000 );
#315 = CIRCLE( '', #371, 16.0000000000000 );
#316 = CIRCLE( '', #372, 16.0000000000000 );
#317 = CIRCLE( '', #373, 25.0000000000000 );
#318 = CIRCLE( '', #374, 25.0000000000000 );
#319 = CIRCLE( '', #375, 20.4000000000000 );
#320 = CARTESIAN_POINT( '', ( 59.0000000000000, 20.4000000000000, -4.99639392359530E-015 ) );
#321 = CARTESIAN_POINT( '', ( 0.000000000000000, 20.4000000000000, -4.99639392359530E-015 ) );
#322 = CARTESIAN_POINT( '', ( 29.5000000000000, 20.4000000000000, -2.49819696179765E-015 ) );
#323 = VECTOR( '', #376, 1.00000000000000 );
#324 = CARTESIAN_POINT( '', ( 59.0000000000000, -20.4000000000000, 2.49819696179765E-015 ) );
#325 = AXIS2_PLACEMENT_3D( '', #377, #378, #379 );
#326 = CARTESIAN_POINT( '', ( 6.14197958029917E-016, -20.4000000000000, 2.49819696179765E-015 ) );
#327 = CARTESIAN_POINT( '', ( 29.5000000000000, -20.4000000000000, 2.49819696179765E-015 ) );
#328 = VECTOR( '', #380, 1.00000000000000 );
#329 = AXIS2_PLACEMENT_3D( '', #381, #382, #383 );
#330 = CARTESIAN_POINT( '', ( 59.0000000000000, 25.0000000000000, -6.12303176911189E-015 ) );
#331 = CARTESIAN_POINT( '', ( 0.000000000000000, 25.0000000000000, -6.12303176911189E-015 ) );
#332 = CARTESIAN_POINT( '', ( 29.5000000000000, 25.0000000000000, -3.06151588455594E-015 ) );
#333 = VECTOR( '', #384, 1.00000000000000 );
#334 = CARTESIAN_POINT( '', ( 59.0000000000000, -25.0000000000000, 3.06151588455594E-015 ) );
#335 = AXIS2_PLACEMENT_3D( '', #385, #386, #387 );
#336 = CARTESIAN_POINT( '', ( 7.52693576017055E-016, -25.0000000000000, 3.06151588455594E-015 ) );
#337 = CARTESIAN_POINT( '', ( 29.5000000000000, -25.0000000000000, 3.06151588455594E-015 ) );
#338 = VECTOR( '', #388, 1.00000000000000 );
#339 = AXIS2_PLACEMENT_3D( '', #389, #390, #391 );
#340 = CARTESIAN_POINT( '', ( 72.0000000000000, 16.0000000000000, -3.91874033223161E-015 ) );
#341 = CARTESIAN_POINT( '', ( 65.5000000000000, 20.5000000000000, -2.51044302533587E-015 ) );
#342 = VECTOR( '', #392, 1.00000000000000 );
#343 = CARTESIAN_POINT( '', ( 72.0000000000000, -16.0000000000000, 1.95937016611580E-015 ) );
#344 = AXIS2_PLACEMENT_3D( '', #393, #394, #395 );
#345 = CARTESIAN_POINT( '', ( 65.5000000000000, -20.5000000000000, 2.51044302533587E-015 ) );
#346 = VECTOR( '', #396, 1.00000000000000 );
#347 = CARTESIAN_POINT( '', ( 118.000000000000, 16.0000000000000, -3.91874033223161E-015 ) );
#348 = CARTESIAN_POINT( '', ( 95.0000000000000, 16.0000000000000, -1.95937016611580E-015 ) );
#349 = VECTOR( '', #397, 1.00000000000000 );
#350 = CARTESIAN_POINT( '', ( 118.000000000000, -16.0000000000000, 1.95937016611580E-015 ) );
#351 = AXIS2_PLACEMENT_3D( '', #398, #399, #400 );
#352 = CARTESIAN_POINT( '', ( 95.0000000000000, -16.0000000000000, 1.95937016611580E-015 ) );
#353 = VECTOR( '', #401, 1.00000000000000 );
#354 = CARTESIAN_POINT( '', ( 118.000000000000, 13.0000000000000, -3.18397651993818E-015 ) );
#355 = CARTESIAN_POINT( '', ( 72.0000000000000, 13.0000000000000, -3.18397651993818E-015 ) );
#356 = CARTESIAN_POINT( '', ( 95.0000000000000, 13.0000000000000, -1.59198825996909E-015 ) );
#357 = VECTOR( '', #402, 1.00000000000000 );
#358 = CARTESIAN_POINT( '', ( 118.000000000000, -13.0000000000000, 1.59198825996909E-015 ) );
#359 = AXIS2_PLACEMENT_3D( '', #403, #404, #405 );
#360 = CARTESIAN_POINT( '', ( 72.0000000000000, -13.0000000000000, 1.59198825996909E-015 ) );
#361 = CARTESIAN_POINT( '', ( 95.0000000000000, -13.0000000000000, 1.59198825996909E-015 ) );
#362 = VECTOR( '', #406, 1.00000000000000 );
#363 = AXIS2_PLACEMENT_3D( '', #407, #408, #409 );
#364 = CARTESIAN_POINT( '', ( 65.5000000000000, 16.7000000000000, -2.04509261088337E-015 ) );
#365 = VECTOR( '', #410, 1.00000000000000 );
#366 = CARTESIAN_POINT( '', ( 65.5000000000000, -16.7000000000000, 2.04509261088337E-015 ) );
#367 = VECTOR( '', #411, 1.00000000000000 );
#368 = AXIS2_PLACEMENT_3D( '', #412, #413, #414 );
#369 = AXIS2_PLACEMENT_3D( '', #415, #416, #417 );
#370 = AXIS2_PLACEMENT_3D( '', #418, #419, #420 );
#371 = AXIS2_PLACEMENT_3D( '', #421, #422, #423 );
#372 = AXIS2_PLACEMENT_3D( '', #424, #425, #426 );
#373 = AXIS2_PLACEMENT_3D( '', #427, #428, #429 );
#374 = AXIS2_PLACEMENT_3D( '', #430, #431, #432 );
#375 = AXIS2_PLACEMENT_3D( '', #433, #434, #435 );
#376 = DIRECTION( '', ( -1.00000000000000, -3.01077430406822E-017, 0.000000000000000 ) );
#377 = CARTESIAN_POINT( '', ( 59.0000000000000, -1.77635683940025E-015, 0.000000000000000 ) );
#378 = DIRECTION( '', ( -1.00000000000000, -3.01077430406822E-017, 0.000000000000000 ) );
#379 = DIRECTION( '', ( -3.01077430406822E-017, 1.00000000000000, -2.44921270764475E-016 ) );
#380 = DIRECTION( '', ( 1.00000000000000, 3.01077430406822E-017, 0.000000000000000 ) );
#381 = CARTESIAN_POINT( '', ( 6.10622663543836E-016, -3.55271367880050E-015, 0.000000000000000 ) );
#382 = DIRECTION( '', ( -1.00000000000000, -3.01077430406822E-017, -8.41802710691090E-049 ) );
#383 = DIRECTION( '', ( -3.01077430406822E-017, 1.00000000000000, -2.44921270764475E-016 ) );
#384 = DIRECTION( '', ( -1.00000000000000, -3.01077430406822E-017, 0.000000000000000 ) );
#385 = CARTESIAN_POINT( '', ( 59.0000000000000, -1.77635683940025E-015, 0.000000000000000 ) );
#386 = DIRECTION( '', ( -1.00000000000000, -3.01077430406822E-017, -2.24207754291971E-048 ) );
#387 = DIRECTION( '', ( -3.01077430406822E-017, 1.00000000000000, -2.44921270764475E-016 ) );
#388 = DIRECTION( '', ( 1.00000000000000, 3.01077430406822E-017, 0.000000000000000 ) );
#389 = CARTESIAN_POINT( '', ( 7.49400541621981E-016, -3.55271367880050E-015, 0.000000000000000 ) );
#390 = DIRECTION( '', ( -1.00000000000000, -3.01077430406822E-017, -2.24207754291971E-048 ) );
#391 = DIRECTION( '', ( -3.01077430406822E-017, 1.00000000000000, -2.44921270764475E-016 ) );
#392 = DIRECTION( '', ( -0.822192191643779, 0.569209978830308, -6.97058156734697E-017 ) );
#393 = CARTESIAN_POINT( '', ( 72.0000000000000, -1.38495617987138E-015, 0.000000000000000 ) );
#394 = DIRECTION( '', ( -1.00000000000000, -3.01077430406822E-017, 0.000000000000000 ) );
#395 = DIRECTION( '', ( -3.01077430406822E-017, 1.00000000000000, -2.44921270764475E-016 ) );
#396 = DIRECTION( '', ( 0.822192191643779, 0.569209978830308, -6.97058156734696E-017 ) );
#397 = DIRECTION( '', ( -1.00000000000000, -3.01077430406822E-017, 0.000000000000000 ) );
#398 = CARTESIAN_POINT( '', ( 118.000000000000, 0.000000000000000, 0.000000000000000 ) );
#399 = DIRECTION( '', ( -1.00000000000000, -3.01077430406822E-017, 0.000000000000000 ) );
#400 = DIRECTION( '', ( -3.01077430406822E-017, 1.00000000000000, -2.44921270764475E-016 ) );
#401 = DIRECTION( '', ( 1.00000000000000, 3.01077430406822E-017, 0.000000000000000 ) );
#402 = DIRECTION( '', ( -1.00000000000000, -3.01077430406822E-017, 0.000000000000000 ) );
#403 = CARTESIAN_POINT( '', ( 118.000000000000, 0.000000000000000, 0.000000000000000 ) );
#404 = DIRECTION( '', ( -1.00000000000000, -3.01077430406822E-017, 1.03646336118699E-048 ) );
#405 = DIRECTION( '', ( -3.01077430406822E-017, 1.00000000000000, -2.44921270764475E-016 ) );
#406 = DIRECTION( '', ( 1.00000000000000, 3.01077430406822E-017, 0.000000000000000 ) );
#407 = CARTESIAN_POINT( '', ( 72.0000000000000, -1.38495617987138E-015, 0.000000000000000 ) );
#408 = DIRECTION( '', ( -1.00000000000000, -3.01077430406822E-017, 1.03646336118699E-048 ) );
#409 = DIRECTION( '', ( -3.01077430406822E-017, 1.00000000000000, -2.44921270764475E-016 ) );
#410 = DIRECTION( '', ( -0.869064731380397, 0.494698385554995, -6.05810786176319E-017 ) );
#411 = DIRECTION( '', ( 0.869064731380397, 0.494698385554995, -6.05810786176319E-017 ) );
#412 = CARTESIAN_POINT( '', ( 59.0000000000000, -1.77635683940025E-015, 0.000000000000000 ) );
#413 = DIRECTION( '', ( -1.00000000000000, -3.01077430406822E-017, 0.000000000000000 ) );
#414 = DIRECTION( '', ( -3.01077430406822E-017, 1.00000000000000, -2.44921270764475E-016 ) );
#415 = CARTESIAN_POINT( '', ( 72.0000000000000, -1.38495617987138E-015, 0.000000000000000 ) );
#416 = DIRECTION( '', ( -1.00000000000000, -3.01077430406822E-017, 1.03646336118699E-048 ) );
#417 = DIRECTION( '', ( -3.01077430406822E-017, 1.00000000000000, -2.44921270764475E-016 ) );
#418 = CARTESIAN_POINT( '', ( 118.000000000000, 0.000000000000000, 0.000000000000000 ) );
#419 = DIRECTION( '', ( -1.00000000000000, -3.01077430406822E-017, 1.03646336118699E-048 ) );
#420 = DIRECTION( '', ( -3.01077430406822E-017, 1.00000000000000, -2.44921270764475E-016 ) );
#421 = CARTESIAN_POINT( '', ( 118.000000000000, 0.000000000000000, 0.000000000000000 ) );
#422 = DIRECTION( '', ( -1.00000000000000, -3.01077430406822E-017, 0.000000000000000 ) );
#423 = DIRECTION( '', ( -3.01077430406822E-017, 1.00000000000000, -2.44921270764475E-016 ) );
#424 = CARTESIAN_POINT( '', ( 72.0000000000000, -1.38495617987138E-015, 0.000000000000000 ) );
#425 = DIRECTION( '', ( -1.00000000000000, -3.01077430406822E-017, 0.000000000000000 ) );
#426 = DIRECTION( '', ( -3.01077430406822E-017, 1.00000000000000, -2.44921270764475E-016 ) );
#427 = CARTESIAN_POINT( '', ( 59.0000000000000, -1.77635683940025E-015, 0.000000000000000 ) );
#428 = DIRECTION( '', ( -1.00000000000000, -3.01077430406822E-017, -2.24207754291971E-048 ) );
#429 = DIRECTION( '', ( -3.01077430406822E-017, 1.00000000000000, -2.44921270764475E-016 ) );
#430 = CARTESIAN_POINT( '', ( 7.49400541621981E-016, -3.55271367880050E-015, 0.000000000000000 ) );
#431 = DIRECTION( '', ( -1.00000000000000, -3.01077430406822E-017, -2.24207754291971E-048 ) );
#432 = DIRECTION( '', ( -3.01077430406822E-017, 1.00000000000000, -2.44921270764475E-016 ) );
#433 = CARTESIAN_POINT( '', ( 6.10622663543836E-016, -3.55271367880050E-015, 0.000000000000000 ) );
#434 = DIRECTION( '', ( -1.00000000000000, -3.01077430406822E-017, -8.41802710691090E-049 ) );
#435 = DIRECTION( '', ( -3.01077430406822E-017, 1.00000000000000, -2.44921270764475E-016 ) );
ENDSEC;
END-ISO-10303-21;
