ISO-10303-21;
HEADER;
FILE_DESCRIPTION( ( '' ), '1' );
FILE_NAME( 'R:/Engineering/Parts CD files/Industrial & Dual Contained/Halar/END CAP/AGRU_40064005021_ECTFE natur_Endkappe_50X3,0  SDR21  ISO S-10_110.stp', '2011-12-29T16:03:12', ( '' ), ( '' ), ' ', ' ', ' ' );
FILE_SCHEMA( ( 'CONFIG_CONTROL_DESIGN' ) );
ENDSEC;
DATA;
#1 = DESIGN_CONTEXT( '', #27, 'design' );
#2 = APPLICATION_PROTOCOL_DEFINITION( 'INTERNATIONAL STANDARD', 'config_control_design', 1994, #27 );
#3 = PRODUCT_CATEGORY_RELATIONSHIP( 'NONE', 'NONE', #28, #29 );
#4 = DATE_AND_TIME( #30, #31 );
#5 = DATE_TIME_ROLE( 'creation_date' );
#6 = DATE_TIME_ROLE( 'classification_date' );
#7 = PERSON_AND_ORGANIZATION_ROLE( 'creator' );
#8 = PERSON_AND_ORGANIZATION_ROLE( 'design_supplier' );
#9 = PERSON_AND_ORGANIZATION_ROLE( 'classification_officer' );
#10 = PERSON_AND_ORGANIZATION_ROLE( 'design_owner' );
#11 = APPROVAL_PERSON_ORGANIZATION( #32, #33, #34 );
#12 = APPROVAL_DATE_TIME( #4, #33 );
#13 = CC_DESIGN_APPROVAL( #33, ( #35, #36, #37 ) );
#14 = CC_DESIGN_DATE_AND_TIME_ASSIGNMENT( #4, #5, ( #37 ) );
#15 = CC_DESIGN_DATE_AND_TIME_ASSIGNMENT( #4, #6, ( #35 ) );
#16 = CC_DESIGN_PERSON_AND_ORGANIZATION_ASSIGNMENT( #32, #10, ( #38 ) );
#17 = CC_DESIGN_PERSON_AND_ORGANIZATION_ASSIGNMENT( #32, #7, ( #37 ) );
#18 = CC_DESIGN_PERSON_AND_ORGANIZATION_ASSIGNMENT( #32, #7, ( #36 ) );
#19 = CC_DESIGN_PERSON_AND_ORGANIZATION_ASSIGNMENT( #32, #8, ( #36 ) );
#20 = CC_DESIGN_SECURITY_CLASSIFICATION( #35, ( #36 ) );
#21 = CC_DESIGN_PERSON_AND_ORGANIZATION_ASSIGNMENT( #32, #9, ( #35 ) );
#22 = SHAPE_DEFINITION_REPRESENTATION( #39, #40 );
#23 =  ( GEOMETRIC_REPRESENTATION_CONTEXT( 3 )GLOBAL_UNCERTAINTY_ASSIGNED_CONTEXT( ( #43 ) )GLOBAL_UNIT_ASSIGNED_CONTEXT( ( #45, #46, #47 ) )REPRESENTATION_CONTEXT( 'NONE', 'WORKSPACE' ) );
#27 = APPLICATION_CONTEXT( 'CONFIGURATION CONTROLLED 3D DESIGNS OF MECHANICAL PARTS AND ASSEMBLIES' );
#28 = PRODUCT_CATEGORY( 'part', 'NONE' );
#29 = PRODUCT_RELATED_PRODUCT_CATEGORY( 'detail', ' ', ( #38 ) );
#30 = CALENDAR_DATE( 2011, 29, 11 );
#31 = LOCAL_TIME( 11, 3, 12.0000000000000, #49 );
#32 = PERSON_AND_ORGANIZATION( #50, #51 );
#33 = APPROVAL( #52, 'SOLID MODEL' );
#34 = APPROVAL_ROLE( 'APPROVED' );
#35 = SECURITY_CLASSIFICATION( '', '', #53 );
#36 = PRODUCT_DEFINITION_FORMATION_WITH_SPECIFIED_SOURCE( ' ', 'NONE', #38, .NOT_KNOWN. );
#37 = PRODUCT_DEFINITION( 'NONE', 'NONE', #36, #1 );
#38 = PRODUCT( '1', '1', 'PART-1-DESC', ( #54 ) );
#39 = PRODUCT_DEFINITION_SHAPE( 'NONE', 'NONE', #37 );
#40 = ADVANCED_BREP_SHAPE_REPRESENTATION( '1', ( #55, #56 ), #23 );
#43 = UNCERTAINTY_MEASURE_WITH_UNIT( LENGTH_MEASURE( 1.00000000000000E-006 ), #45, '', '' );
#45 =  ( CONVERSION_BASED_UNIT( 'MILLIMETRE', #59 )LENGTH_UNIT(  )NAMED_UNIT( #62 ) );
#46 =  ( NAMED_UNIT( #64 )PLANE_ANGLE_UNIT(  )SI_UNIT( $, .RADIAN. ) );
#47 =  ( NAMED_UNIT( #64 )SOLID_ANGLE_UNIT(  )SI_UNIT( $, .STERADIAN. ) );
#49 = COORDINATED_UNIVERSAL_TIME_OFFSET( 5, 0, .BEHIND. );
#50 = PERSON( '', 'UNSPECIFIED', $, $, $, $ );
#51 = ORGANIZATION( 'UNSPECIFIED', 'UNSPECIFIED', 'UNSPECIFIED' );
#52 = APPROVAL_STATUS( 'approved' );
#53 = SECURITY_CLASSIFICATION_LEVEL( 'unclassified' );
#54 = MECHANICAL_CONTEXT( '', #27, 'mechanical' );
#55 = MANIFOLD_SOLID_BREP( '1', #70 );
#56 = AXIS2_PLACEMENT_3D( '', #71, #72, #73 );
#59 = LENGTH_MEASURE_WITH_UNIT( LENGTH_MEASURE( 1.00000000000000 ), #74 );
#62 = DIMENSIONAL_EXPONENTS( 1.00000000000000, 0.000000000000000, 0.000000000000000, 0.000000000000000, 0.000000000000000, 0.000000000000000, 0.000000000000000 );
#64 = DIMENSIONAL_EXPONENTS( 0.000000000000000, 0.000000000000000, 0.000000000000000, 0.000000000000000, 0.000000000000000, 0.000000000000000, 0.000000000000000 );
#70 = CLOSED_SHELL( '', ( #75, #76, #77, #78, #79, #80, #81, #82, #83, #84, #85, #86, #87 ) );
#71 = CARTESIAN_POINT( '', ( 0.000000000000000, 0.000000000000000, 0.000000000000000 ) );
#72 = DIRECTION( '', ( 0.000000000000000, 0.000000000000000, 1.00000000000000 ) );
#73 = DIRECTION( '', ( 1.00000000000000, 0.000000000000000, 0.000000000000000 ) );
#74 =  ( NAMED_UNIT( #62 )LENGTH_UNIT(  )SI_UNIT( .MILLI., .METRE. ) );
#75 = ADVANCED_FACE( '', ( #89 ), #90, .T. );
#76 = ADVANCED_FACE( '', ( #91 ), #92, .T. );
#77 = ADVANCED_FACE( '', ( #93 ), #94, .T. );
#78 = ADVANCED_FACE( '', ( #95 ), #96, .F. );
#79 = ADVANCED_FACE( '', ( #97 ), #98, .F. );
#80 = ADVANCED_FACE( '', ( #99 ), #100, .F. );
#81 = ADVANCED_FACE( '', ( #101 ), #102, .F. );
#82 = ADVANCED_FACE( '', ( #103 ), #104, .F. );
#83 = ADVANCED_FACE( '', ( #105 ), #106, .F. );
#84 = ADVANCED_FACE( '', ( #107, #108 ), #109, .T. );
#85 = ADVANCED_FACE( '', ( #110 ), #111, .T. );
#86 = ADVANCED_FACE( '', ( #112 ), #113, .T. );
#87 = ADVANCED_FACE( '', ( #114 ), #115, .T. );
#89 = FACE_OUTER_BOUND( '', #116, .T. );
#90 = SPHERICAL_SURFACE( '', #117, 50.0000000000003 );
#91 = FACE_OUTER_BOUND( '', #118, .T. );
#92 = TOROIDAL_SURFACE( '', #119, 19.0000000000000, 5.99999999999999 );
#93 = FACE_OUTER_BOUND( '', #120, .T. );
#94 = CYLINDRICAL_SURFACE( '', #121, 25.0000000000000 );
#95 = FACE_OUTER_BOUND( '', #122, .T. );
#96 = CYLINDRICAL_SURFACE( '', #123, 22.0000000000000 );
#97 = FACE_OUTER_BOUND( '', #124, .T. );
#98 = TOROIDAL_SURFACE( '', #125, 19.0000000000000, 3.00000000000003 );
#99 = FACE_OUTER_BOUND( '', #126, .T. );
#100 = SPHERICAL_SURFACE( '', #127, 47.0000000000004 );
#101 = FACE_OUTER_BOUND( '', #128, .T. );
#102 = SPHERICAL_SURFACE( '', #129, 47.0000000000004 );
#103 = FACE_OUTER_BOUND( '', #130, .T. );
#104 = TOROIDAL_SURFACE( '', #131, 19.0000000000000, 3.00000000000003 );
#105 = FACE_OUTER_BOUND( '', #132, .T. );
#106 = CYLINDRICAL_SURFACE( '', #133, 22.0000000000000 );
#107 = FACE_OUTER_BOUND( '', #134, .T. );
#108 = FACE_BOUND( '', #135, .T. );
#109 = PLANE( '', #136 );
#110 = FACE_OUTER_BOUND( '', #137, .T. );
#111 = CYLINDRICAL_SURFACE( '', #138, 25.0000000000000 );
#112 = FACE_OUTER_BOUND( '', #139, .T. );
#113 = TOROIDAL_SURFACE( '', #140, 19.0000000000000, 5.99999999999999 );
#114 = FACE_OUTER_BOUND( '', #141, .T. );
#115 = SPHERICAL_SURFACE( '', #142, 50.0000000000003 );
#116 = EDGE_LOOP( '', ( #143, #144, #145 ) );
#117 = AXIS2_PLACEMENT_3D( '', #146, #147, #148 );
#118 = EDGE_LOOP( '', ( #149, #150, #151, #152, #153, #154 ) );
#119 = AXIS2_PLACEMENT_3D( '', #155, #156, #157 );
#120 = EDGE_LOOP( '', ( #158, #159, #160, #161, #162 ) );
#121 = AXIS2_PLACEMENT_3D( '', #163, #164, #165 );
#122 = EDGE_LOOP( '', ( #166, #167, #168, #169, #170 ) );
#123 = AXIS2_PLACEMENT_3D( '', #171, #172, #173 );
#124 = EDGE_LOOP( '', ( #174, #175, #176, #177, #178 ) );
#125 = AXIS2_PLACEMENT_3D( '', #179, #180, #181 );
#126 = EDGE_LOOP( '', ( #182, #183 ) );
#127 = AXIS2_PLACEMENT_3D( '', #184, #185, #186 );
#128 = EDGE_LOOP( '', ( #187, #188, #189 ) );
#129 = AXIS2_PLACEMENT_3D( '', #190, #191, #192 );
#130 = EDGE_LOOP( '', ( #193, #194, #195, #196, #197, #198 ) );
#131 = AXIS2_PLACEMENT_3D( '', #199, #200, #201 );
#132 = EDGE_LOOP( '', ( #202, #203, #204, #205, #206 ) );
#133 = AXIS2_PLACEMENT_3D( '', #207, #208, #209 );
#134 = EDGE_LOOP( '', ( #210, #211 ) );
#135 = EDGE_LOOP( '', ( #212, #213 ) );
#136 = AXIS2_PLACEMENT_3D( '', #214, #215, #216 );
#137 = EDGE_LOOP( '', ( #217, #218, #219, #220, #221 ) );
#138 = AXIS2_PLACEMENT_3D( '', #222, #223, #224 );
#139 = EDGE_LOOP( '', ( #225, #226, #227, #228, #229 ) );
#140 = AXIS2_PLACEMENT_3D( '', #230, #231, #232 );
#141 = EDGE_LOOP( '', ( #233, #234 ) );
#142 = AXIS2_PLACEMENT_3D( '', #235, #236, #237 );
#143 = ORIENTED_EDGE( '', *, *, #238, .F. );
#144 = ORIENTED_EDGE( '', *, *, #239, .T. );
#145 = ORIENTED_EDGE( '', *, *, #240, .T. );
#146 = CARTESIAN_POINT( '', ( -22.9999999999998, 0.000000000000000, 0.000000000000000 ) );
#147 = DIRECTION( '', ( 0.000000000000000, 0.000000000000000, 1.00000000000000 ) );
#148 = DIRECTION( '', ( 1.00000000000000, 0.000000000000000, 0.000000000000000 ) );
#149 = ORIENTED_EDGE( '', *, *, #241, .F. );
#150 = ORIENTED_EDGE( '', *, *, #242, .T. );
#151 = ORIENTED_EDGE( '', *, *, #243, .T. );
#152 = ORIENTED_EDGE( '', *, *, #244, .F. );
#153 = ORIENTED_EDGE( '', *, *, #240, .F. );
#154 = ORIENTED_EDGE( '', *, *, #239, .F. );
#155 = CARTESIAN_POINT( '', ( -62.6862696659689, 0.000000000000000, 0.000000000000000 ) );
#156 = DIRECTION( '', ( -1.00000000000000, 0.000000000000000, 0.000000000000000 ) );
#157 = DIRECTION( '', ( 0.000000000000000, 0.000000000000000, 1.00000000000000 ) );
#158 = ORIENTED_EDGE( '', *, *, #245, .F. );
#159 = ORIENTED_EDGE( '', *, *, #246, .T. );
#160 = ORIENTED_EDGE( '', *, *, #247, .F. );
#161 = ORIENTED_EDGE( '', *, *, #248, .F. );
#162 = ORIENTED_EDGE( '', *, *, #243, .F. );
#163 = CARTESIAN_POINT( '', ( -31.3431348329844, 0.000000000000000, 0.000000000000000 ) );
#164 = DIRECTION( '', ( 1.00000000000000, 0.000000000000000, 0.000000000000000 ) );
#165 = DIRECTION( '', ( 0.000000000000000, 1.00000000000000, -2.44921270764476E-016 ) );
#166 = ORIENTED_EDGE( '', *, *, #249, .F. );
#167 = ORIENTED_EDGE( '', *, *, #250, .F. );
#168 = ORIENTED_EDGE( '', *, *, #251, .F. );
#169 = ORIENTED_EDGE( '', *, *, #252, .T. );
#170 = ORIENTED_EDGE( '', *, *, #253, .T. );
#171 = CARTESIAN_POINT( '', ( -31.3431348329844, 0.000000000000000, 0.000000000000000 ) );
#172 = DIRECTION( '', ( 1.00000000000000, 0.000000000000000, 0.000000000000000 ) );
#173 = DIRECTION( '', ( 0.000000000000000, 1.00000000000000, -2.44921270764476E-016 ) );
#174 = ORIENTED_EDGE( '', *, *, #254, .F. );
#175 = ORIENTED_EDGE( '', *, *, #255, .T. );
#176 = ORIENTED_EDGE( '', *, *, #256, .F. );
#177 = ORIENTED_EDGE( '', *, *, #252, .F. );
#178 = ORIENTED_EDGE( '', *, *, #257, .F. );
#179 = CARTESIAN_POINT( '', ( -62.6862696659688, 0.000000000000000, 0.000000000000000 ) );
#180 = DIRECTION( '', ( -1.00000000000000, 0.000000000000000, 0.000000000000000 ) );
#181 = DIRECTION( '', ( 0.000000000000000, 0.000000000000000, 1.00000000000000 ) );
#182 = ORIENTED_EDGE( '', *, *, #258, .F. );
#183 = ORIENTED_EDGE( '', *, *, #255, .F. );
#184 = CARTESIAN_POINT( '', ( -22.9999999999995, 0.000000000000000, 0.000000000000000 ) );
#185 = DIRECTION( '', ( 0.000000000000000, 0.000000000000000, 1.00000000000000 ) );
#186 = DIRECTION( '', ( 1.00000000000000, 0.000000000000000, 0.000000000000000 ) );
#187 = ORIENTED_EDGE( '', *, *, #258, .T. );
#188 = ORIENTED_EDGE( '', *, *, #259, .F. );
#189 = ORIENTED_EDGE( '', *, *, #260, .F. );
#190 = CARTESIAN_POINT( '', ( -22.9999999999995, 0.000000000000000, 0.000000000000000 ) );
#191 = DIRECTION( '', ( 0.000000000000000, 0.000000000000000, 1.00000000000000 ) );
#192 = DIRECTION( '', ( 1.00000000000000, 0.000000000000000, 0.000000000000000 ) );
#193 = ORIENTED_EDGE( '', *, *, #254, .T. );
#194 = ORIENTED_EDGE( '', *, *, #261, .F. );
#195 = ORIENTED_EDGE( '', *, *, #253, .F. );
#196 = ORIENTED_EDGE( '', *, *, #256, .T. );
#197 = ORIENTED_EDGE( '', *, *, #260, .T. );
#198 = ORIENTED_EDGE( '', *, *, #259, .T. );
#199 = CARTESIAN_POINT( '', ( -62.6862696659688, 0.000000000000000, 0.000000000000000 ) );
#200 = DIRECTION( '', ( -1.00000000000000, 0.000000000000000, 0.000000000000000 ) );
#201 = DIRECTION( '', ( 0.000000000000000, 0.000000000000000, 1.00000000000000 ) );
#202 = ORIENTED_EDGE( '', *, *, #249, .T. );
#203 = ORIENTED_EDGE( '', *, *, #261, .T. );
#204 = ORIENTED_EDGE( '', *, *, #257, .T. );
#205 = ORIENTED_EDGE( '', *, *, #251, .T. );
#206 = ORIENTED_EDGE( '', *, *, #262, .F. );
#207 = CARTESIAN_POINT( '', ( -31.3431348329844, 0.000000000000000, 0.000000000000000 ) );
#208 = DIRECTION( '', ( 1.00000000000000, 0.000000000000000, 0.000000000000000 ) );
#209 = DIRECTION( '', ( 0.000000000000000, 1.00000000000000, -2.44921270764476E-016 ) );
#210 = ORIENTED_EDGE( '', *, *, #246, .F. );
#211 = ORIENTED_EDGE( '', *, *, #263, .F. );
#212 = ORIENTED_EDGE( '', *, *, #262, .T. );
#213 = ORIENTED_EDGE( '', *, *, #250, .T. );
#214 = CARTESIAN_POINT( '', ( 0.000000000000000, 23.5000000000000, -5.75564986296517E-015 ) );
#215 = DIRECTION( '', ( 1.00000000000000, 0.000000000000000, 0.000000000000000 ) );
#216 = DIRECTION( '', ( 0.000000000000000, -1.00000000000000, 2.44921270764475E-016 ) );
#217 = ORIENTED_EDGE( '', *, *, #245, .T. );
#218 = ORIENTED_EDGE( '', *, *, #242, .F. );
#219 = ORIENTED_EDGE( '', *, *, #264, .F. );
#220 = ORIENTED_EDGE( '', *, *, #247, .T. );
#221 = ORIENTED_EDGE( '', *, *, #263, .T. );
#222 = CARTESIAN_POINT( '', ( -31.3431348329844, 0.000000000000000, 0.000000000000000 ) );
#223 = DIRECTION( '', ( 1.00000000000000, 0.000000000000000, 0.000000000000000 ) );
#224 = DIRECTION( '', ( 0.000000000000000, 1.00000000000000, -2.44921270764476E-016 ) );
#225 = ORIENTED_EDGE( '', *, *, #241, .T. );
#226 = ORIENTED_EDGE( '', *, *, #265, .F. );
#227 = ORIENTED_EDGE( '', *, *, #244, .T. );
#228 = ORIENTED_EDGE( '', *, *, #248, .T. );
#229 = ORIENTED_EDGE( '', *, *, #264, .T. );
#230 = CARTESIAN_POINT( '', ( -62.6862696659689, 0.000000000000000, 0.000000000000000 ) );
#231 = DIRECTION( '', ( -1.00000000000000, 0.000000000000000, 0.000000000000000 ) );
#232 = DIRECTION( '', ( 0.000000000000000, 0.000000000000000, 1.00000000000000 ) );
#233 = ORIENTED_EDGE( '', *, *, #238, .T. );
#234 = ORIENTED_EDGE( '', *, *, #265, .T. );
#235 = CARTESIAN_POINT( '', ( -22.9999999999998, 0.000000000000000, 0.000000000000000 ) );
#236 = DIRECTION( '', ( 0.000000000000000, 0.000000000000000, 1.00000000000000 ) );
#237 = DIRECTION( '', ( 1.00000000000000, 0.000000000000000, 0.000000000000000 ) );
#238 = EDGE_CURVE( '', #266, #267, #268, .T. );
#239 = EDGE_CURVE( '', #266, #269, #270, .T. );
#240 = EDGE_CURVE( '', #269, #267, #271, .T. );
#241 = EDGE_CURVE( '', #272, #266, #273, .T. );
#242 = EDGE_CURVE( '', #272, #274, #275, .T. );
#243 = EDGE_CURVE( '', #274, #276, #277, .T. );
#244 = EDGE_CURVE( '', #267, #276, #278, .T. );
#245 = EDGE_CURVE( '', #279, #274, #280, .T. );
#246 = EDGE_CURVE( '', #279, #281, #282, .T. );
#247 = EDGE_CURVE( '', #283, #281, #284, .T. );
#248 = EDGE_CURVE( '', #276, #283, #285, .T. );
#249 = EDGE_CURVE( '', #286, #287, #288, .T. );
#250 = EDGE_CURVE( '', #289, #286, #290, .T. );
#251 = EDGE_CURVE( '', #291, #289, #292, .T. );
#252 = EDGE_CURVE( '', #291, #293, #294, .T. );
#253 = EDGE_CURVE( '', #293, #287, #295, .T. );
#254 = EDGE_CURVE( '', #296, #297, #298, .T. );
#255 = EDGE_CURVE( '', #296, #299, #300, .T. );
#256 = EDGE_CURVE( '', #293, #299, #301, .T. );
#257 = EDGE_CURVE( '', #297, #291, #302, .T. );
#258 = EDGE_CURVE( '', #299, #296, #303, .T. );
#259 = EDGE_CURVE( '', #304, #296, #305, .T. );
#260 = EDGE_CURVE( '', #299, #304, #306, .T. );
#261 = EDGE_CURVE( '', #287, #297, #307, .T. );
#262 = EDGE_CURVE( '', #286, #289, #308, .T. );
#263 = EDGE_CURVE( '', #281, #279, #309, .T. );
#264 = EDGE_CURVE( '', #283, #272, #310, .T. );
#265 = EDGE_CURVE( '', #267, #266, #311, .T. );
#266 = VERTEX_POINT( '', #312 );
#267 = VERTEX_POINT( '', #313 );
#268 = CIRCLE( '', #314, 50.0000000000003 );
#269 = VERTEX_POINT( '', #315 );
#270 = CIRCLE( '', #316, 21.5909090909091 );
#271 = CIRCLE( '', #317, 21.5909090909091 );
#272 = VERTEX_POINT( '', #318 );
#273 = CIRCLE( '', #319, 5.99999999999999 );
#274 = VERTEX_POINT( '', #320 );
#275 = CIRCLE( '', #321, 25.0000000000000 );
#276 = VERTEX_POINT( '', #322 );
#277 = CIRCLE( '', #323, 25.0000000000000 );
#278 = CIRCLE( '', #324, 5.99999999999999 );
#279 = VERTEX_POINT( '', #325 );
#280 = LINE( '', #326, #327 );
#281 = VERTEX_POINT( '', #328 );
#282 = CIRCLE( '', #329, 25.0000000000000 );
#283 = VERTEX_POINT( '', #330 );
#284 = LINE( '', #331, #332 );
#285 = CIRCLE( '', #333, 25.0000000000000 );
#286 = VERTEX_POINT( '', #334 );
#287 = VERTEX_POINT( '', #335 );
#288 = LINE( '', #336, #337 );
#289 = VERTEX_POINT( '', #338 );
#290 = CIRCLE( '', #339, 22.0000000000000 );
#291 = VERTEX_POINT( '', #340 );
#292 = LINE( '', #341, #342 );
#293 = VERTEX_POINT( '', #343 );
#294 = CIRCLE( '', #344, 22.0000000000000 );
#295 = CIRCLE( '', #345, 22.0000000000000 );
#296 = VERTEX_POINT( '', #346 );
#297 = VERTEX_POINT( '', #347 );
#298 = CIRCLE( '', #348, 3.00000000000003 );
#299 = VERTEX_POINT( '', #349 );
#300 = CIRCLE( '', #350, 20.2954545454545 );
#301 = CIRCLE( '', #351, 3.00000000000003 );
#302 = CIRCLE( '', #352, 22.0000000000000 );
#303 = CIRCLE( '', #353, 47.0000000000004 );
#304 = VERTEX_POINT( '', #354 );
#305 = CIRCLE( '', #355, 20.2954545454545 );
#306 = CIRCLE( '', #356, 20.2954545454545 );
#307 = CIRCLE( '', #357, 22.0000000000000 );
#308 = CIRCLE( '', #358, 22.0000000000000 );
#309 = CIRCLE( '', #359, 25.0000000000000 );
#310 = CIRCLE( '', #360, 25.0000000000000 );
#311 = CIRCLE( '', #361, 21.5909090909091 );
#312 = CARTESIAN_POINT( '', ( -68.0980337113283, -2.64403644575286E-015, 21.5909090909091 ) );
#313 = CARTESIAN_POINT( '', ( -68.0980337113283, 2.64403644575286E-015, -21.5909090909091 ) );
#314 = AXIS2_PLACEMENT_3D( '', #362, #363, #364 );
#315 = CARTESIAN_POINT( '', ( -68.0980337113283, 21.5909090909091, -5.28807289150573E-015 ) );
#316 = AXIS2_PLACEMENT_3D( '', #365, #366, #367 );
#317 = AXIS2_PLACEMENT_3D( '', #368, #369, #370 );
#318 = CARTESIAN_POINT( '', ( -62.6862696659689, -3.06151588455594E-015, 25.0000000000000 ) );
#319 = AXIS2_PLACEMENT_3D( '', #371, #372, #373 );
#320 = CARTESIAN_POINT( '', ( -62.6862696659689, 25.0000000000000, -6.12303176911189E-015 ) );
#321 = AXIS2_PLACEMENT_3D( '', #374, #375, #376 );
#322 = CARTESIAN_POINT( '', ( -62.6862696659689, 3.06151588455594E-015, -25.0000000000000 ) );
#323 = AXIS2_PLACEMENT_3D( '', #377, #378, #379 );
#324 = AXIS2_PLACEMENT_3D( '', #380, #381, #382 );
#325 = CARTESIAN_POINT( '', ( 0.000000000000000, 25.0000000000000, -6.12303176911189E-015 ) );
#326 = CARTESIAN_POINT( '', ( -31.3431348329844, 25.0000000000000, -3.06151588455595E-015 ) );
#327 = VECTOR( '', #383, 1.00000000000000 );
#328 = CARTESIAN_POINT( '', ( 0.000000000000000, -25.0000000000000, 3.06151588455594E-015 ) );
#329 = AXIS2_PLACEMENT_3D( '', #384, #385, #386 );
#330 = CARTESIAN_POINT( '', ( -62.6862696659689, -25.0000000000000, 3.06151588455594E-015 ) );
#331 = CARTESIAN_POINT( '', ( -31.3431348329844, -25.0000000000000, 3.06151588455594E-015 ) );
#332 = VECTOR( '', #387, 1.00000000000000 );
#333 = AXIS2_PLACEMENT_3D( '', #388, #389, #390 );
#334 = CARTESIAN_POINT( '', ( 0.000000000000000, 22.0000000000000, -5.38826795681846E-015 ) );
#335 = CARTESIAN_POINT( '', ( -62.6862696659689, 22.0000000000000, -5.38826795681846E-015 ) );
#336 = CARTESIAN_POINT( '', ( -31.3431348329844, 22.0000000000000, -2.69413397840923E-015 ) );
#337 = VECTOR( '', #391, 1.00000000000000 );
#338 = CARTESIAN_POINT( '', ( 0.000000000000000, -22.0000000000000, 2.69413397840923E-015 ) );
#339 = AXIS2_PLACEMENT_3D( '', #392, #393, #394 );
#340 = CARTESIAN_POINT( '', ( -62.6862696659689, -22.0000000000000, 2.69413397840923E-015 ) );
#341 = CARTESIAN_POINT( '', ( -31.3431348329844, -22.0000000000000, 2.69413397840923E-015 ) );
#342 = VECTOR( '', #395, 1.00000000000000 );
#343 = CARTESIAN_POINT( '', ( -62.6862696659689, -2.69413397840923E-015, 22.0000000000000 ) );
#344 = AXIS2_PLACEMENT_3D( '', #396, #397, #398 );
#345 = AXIS2_PLACEMENT_3D( '', #399, #400, #401 );
#346 = CARTESIAN_POINT( '', ( -65.3921516886486, 5.19136983101216E-015, -20.2954545454545 ) );
#347 = CARTESIAN_POINT( '', ( -62.6862696659689, 2.69413397840923E-015, -22.0000000000000 ) );
#348 = AXIS2_PLACEMENT_3D( '', #402, #403, #404 );
#349 = CARTESIAN_POINT( '', ( -65.3921516886486, 5.19136983101216E-015, 20.2954545454545 ) );
#350 = AXIS2_PLACEMENT_3D( '', #405, #406, #407 );
#351 = AXIS2_PLACEMENT_3D( '', #408, #409, #410 );
#352 = AXIS2_PLACEMENT_3D( '', #411, #412, #413 );
#353 = AXIS2_PLACEMENT_3D( '', #414, #415, #416 );
#354 = CARTESIAN_POINT( '', ( -65.3921516886486, 20.2954545454545, -4.97078851801538E-015 ) );
#355 = AXIS2_PLACEMENT_3D( '', #417, #418, #419 );
#356 = AXIS2_PLACEMENT_3D( '', #420, #421, #422 );
#357 = AXIS2_PLACEMENT_3D( '', #423, #424, #425 );
#358 = AXIS2_PLACEMENT_3D( '', #426, #427, #428 );
#359 = AXIS2_PLACEMENT_3D( '', #429, #430, #431 );
#360 = AXIS2_PLACEMENT_3D( '', #432, #433, #434 );
#361 = AXIS2_PLACEMENT_3D( '', #435, #436, #437 );
#362 = CARTESIAN_POINT( '', ( -22.9999999999998, 0.000000000000000, 0.000000000000000 ) );
#363 = DIRECTION( '', ( -1.22460635382238E-016, -1.00000000000000, 0.000000000000000 ) );
#364 = DIRECTION( '', ( 0.000000000000000, 0.000000000000000, 1.00000000000000 ) );
#365 = CARTESIAN_POINT( '', ( -68.0980337113283, 0.000000000000000, 0.000000000000000 ) );
#366 = DIRECTION( '', ( -1.00000000000000, 0.000000000000000, 0.000000000000000 ) );
#367 = DIRECTION( '', ( 0.000000000000000, 1.00000000000000, -2.44921270764476E-016 ) );
#368 = CARTESIAN_POINT( '', ( -68.0980337113283, 0.000000000000000, 0.000000000000000 ) );
#369 = DIRECTION( '', ( -1.00000000000000, 0.000000000000000, 0.000000000000000 ) );
#370 = DIRECTION( '', ( 0.000000000000000, 1.00000000000000, -2.44921270764476E-016 ) );
#371 = CARTESIAN_POINT( '', ( -62.6862696659689, -2.32675207226252E-015, 19.0000000000000 ) );
#372 = DIRECTION( '', ( 0.000000000000000, -1.00000000000000, -1.22460635382238E-016 ) );
#373 = DIRECTION( '', ( 0.000000000000000, -1.22460635382238E-016, 1.00000000000000 ) );
#374 = CARTESIAN_POINT( '', ( -62.6862696659689, 0.000000000000000, 0.000000000000000 ) );
#375 = DIRECTION( '', ( -1.00000000000000, 0.000000000000000, 0.000000000000000 ) );
#376 = DIRECTION( '', ( 0.000000000000000, 1.00000000000000, -2.44921270764476E-016 ) );
#377 = CARTESIAN_POINT( '', ( -62.6862696659689, 0.000000000000000, 0.000000000000000 ) );
#378 = DIRECTION( '', ( -1.00000000000000, 0.000000000000000, 0.000000000000000 ) );
#379 = DIRECTION( '', ( 0.000000000000000, 1.00000000000000, -2.44921270764476E-016 ) );
#380 = CARTESIAN_POINT( '', ( -62.6862696659689, 2.32675207226252E-015, -19.0000000000000 ) );
#381 = DIRECTION( '', ( 0.000000000000000, -1.00000000000000, -1.22460635382238E-016 ) );
#382 = DIRECTION( '', ( 0.000000000000000, 1.22460635382238E-016, -1.00000000000000 ) );
#383 = DIRECTION( '', ( -1.00000000000000, 0.000000000000000, 0.000000000000000 ) );
#384 = CARTESIAN_POINT( '', ( 0.000000000000000, 0.000000000000000, 0.000000000000000 ) );
#385 = DIRECTION( '', ( -1.00000000000000, 0.000000000000000, 0.000000000000000 ) );
#386 = DIRECTION( '', ( 0.000000000000000, 1.00000000000000, -2.44921270764476E-016 ) );
#387 = DIRECTION( '', ( 1.00000000000000, 0.000000000000000, 0.000000000000000 ) );
#388 = CARTESIAN_POINT( '', ( -62.6862696659689, 0.000000000000000, 0.000000000000000 ) );
#389 = DIRECTION( '', ( -1.00000000000000, 0.000000000000000, 0.000000000000000 ) );
#390 = DIRECTION( '', ( 0.000000000000000, 1.00000000000000, -2.44921270764476E-016 ) );
#391 = DIRECTION( '', ( -1.00000000000000, 0.000000000000000, 0.000000000000000 ) );
#392 = CARTESIAN_POINT( '', ( 0.000000000000000, 0.000000000000000, 0.000000000000000 ) );
#393 = DIRECTION( '', ( -1.00000000000000, 0.000000000000000, 0.000000000000000 ) );
#394 = DIRECTION( '', ( 0.000000000000000, 1.00000000000000, -2.44921270764476E-016 ) );
#395 = DIRECTION( '', ( 1.00000000000000, 0.000000000000000, 0.000000000000000 ) );
#396 = CARTESIAN_POINT( '', ( -62.6862696659689, 0.000000000000000, 0.000000000000000 ) );
#397 = DIRECTION( '', ( -1.00000000000000, 0.000000000000000, 0.000000000000000 ) );
#398 = DIRECTION( '', ( 0.000000000000000, 1.00000000000000, -2.44921270764476E-016 ) );
#399 = CARTESIAN_POINT( '', ( -62.6862696659689, 0.000000000000000, 0.000000000000000 ) );
#400 = DIRECTION( '', ( -1.00000000000000, 0.000000000000000, 0.000000000000000 ) );
#401 = DIRECTION( '', ( 0.000000000000000, 1.00000000000000, -2.44921270764476E-016 ) );
#402 = CARTESIAN_POINT( '', ( -62.6862696659688, 2.32675207226251E-015, -19.0000000000000 ) );
#403 = DIRECTION( '', ( 0.000000000000000, -1.00000000000000, -1.22460635382238E-016 ) );
#404 = DIRECTION( '', ( 0.000000000000000, 1.22460635382238E-016, -1.00000000000000 ) );
#405 = CARTESIAN_POINT( '', ( -65.3921516886486, 0.000000000000000, 0.000000000000000 ) );
#406 = DIRECTION( '', ( -1.00000000000000, 0.000000000000000, 0.000000000000000 ) );
#407 = DIRECTION( '', ( 0.000000000000000, 1.00000000000000, -2.44921270764476E-016 ) );
#408 = CARTESIAN_POINT( '', ( -62.6862696659688, -2.32675207226251E-015, 19.0000000000000 ) );
#409 = DIRECTION( '', ( 0.000000000000000, -1.00000000000000, -1.22460635382238E-016 ) );
#410 = DIRECTION( '', ( 0.000000000000000, -1.22460635382238E-016, 1.00000000000000 ) );
#411 = CARTESIAN_POINT( '', ( -62.6862696659689, 0.000000000000000, 0.000000000000000 ) );
#412 = DIRECTION( '', ( -1.00000000000000, 0.000000000000000, 0.000000000000000 ) );
#413 = DIRECTION( '', ( 0.000000000000000, 1.00000000000000, -2.44921270764476E-016 ) );
#414 = CARTESIAN_POINT( '', ( -22.9999999999995, 0.000000000000000, 0.000000000000000 ) );
#415 = DIRECTION( '', ( -1.22460635382238E-016, -1.00000000000000, 0.000000000000000 ) );
#416 = DIRECTION( '', ( 0.000000000000000, 0.000000000000000, -1.00000000000000 ) );
#417 = CARTESIAN_POINT( '', ( -65.3921516886486, 0.000000000000000, 0.000000000000000 ) );
#418 = DIRECTION( '', ( -1.00000000000000, 0.000000000000000, 0.000000000000000 ) );
#419 = DIRECTION( '', ( 0.000000000000000, 1.00000000000000, -2.44921270764476E-016 ) );
#420 = CARTESIAN_POINT( '', ( -65.3921516886486, 0.000000000000000, 0.000000000000000 ) );
#421 = DIRECTION( '', ( -1.00000000000000, 0.000000000000000, 0.000000000000000 ) );
#422 = DIRECTION( '', ( 0.000000000000000, 1.00000000000000, -2.44921270764476E-016 ) );
#423 = CARTESIAN_POINT( '', ( -62.6862696659689, 0.000000000000000, 0.000000000000000 ) );
#424 = DIRECTION( '', ( -1.00000000000000, 0.000000000000000, 0.000000000000000 ) );
#425 = DIRECTION( '', ( 0.000000000000000, 1.00000000000000, -2.44921270764476E-016 ) );
#426 = CARTESIAN_POINT( '', ( 0.000000000000000, 0.000000000000000, 0.000000000000000 ) );
#427 = DIRECTION( '', ( -1.00000000000000, 0.000000000000000, 0.000000000000000 ) );
#428 = DIRECTION( '', ( 0.000000000000000, 1.00000000000000, -2.44921270764476E-016 ) );
#429 = CARTESIAN_POINT( '', ( 0.000000000000000, 0.000000000000000, 0.000000000000000 ) );
#430 = DIRECTION( '', ( -1.00000000000000, 0.000000000000000, 0.000000000000000 ) );
#431 = DIRECTION( '', ( 0.000000000000000, 1.00000000000000, -2.44921270764476E-016 ) );
#432 = CARTESIAN_POINT( '', ( -62.6862696659689, 0.000000000000000, 0.000000000000000 ) );
#433 = DIRECTION( '', ( -1.00000000000000, 0.000000000000000, 0.000000000000000 ) );
#434 = DIRECTION( '', ( 0.000000000000000, 1.00000000000000, -2.44921270764476E-016 ) );
#435 = CARTESIAN_POINT( '', ( -68.0980337113283, 0.000000000000000, 0.000000000000000 ) );
#436 = DIRECTION( '', ( -1.00000000000000, 0.000000000000000, 0.000000000000000 ) );
#437 = DIRECTION( '', ( 0.000000000000000, 1.00000000000000, -2.44921270764476E-016 ) );
ENDSEC;
END-ISO-10303-21;
