ISO-10303-21;
HEADER;
FILE_DESCRIPTION( ( '' ), '1' );
FILE_NAME( 'R:/Engineering/Parts CD files/Industrial & Dual Contained/Halar/STUB END/AGRU_40012006321_ECTFE natur_Vorschweissbund DIN_63X3,0  SDR21  ISO S-10_110.stp', '2011-12-29T15:45:20', ( '' ), ( '' ), ' ', ' ', ' ' );
FILE_SCHEMA( ( 'CONFIG_CONTROL_DESIGN' ) );
ENDSEC;
DATA;
#1 = DESIGN_CONTEXT( '', #27, 'design' );
#2 = APPLICATION_PROTOCOL_DEFINITION( 'INTERNATIONAL STANDARD', 'config_control_design', 1994, #27 );
#3 = PRODUCT_CATEGORY_RELATIONSHIP( 'NONE', 'NONE', #28, #29 );
#4 = DATE_AND_TIME( #30, #31 );
#5 = DATE_TIME_ROLE( 'creation_date' );
#6 = DATE_TIME_ROLE( 'classification_date' );
#7 = PERSON_AND_ORGANIZATION_ROLE( 'creator' );
#8 = PERSON_AND_ORGANIZATION_ROLE( 'design_supplier' );
#9 = PERSON_AND_ORGANIZATION_ROLE( 'classification_officer' );
#10 = PERSON_AND_ORGANIZATION_ROLE( 'design_owner' );
#11 = APPROVAL_PERSON_ORGANIZATION( #32, #33, #34 );
#12 = APPROVAL_DATE_TIME( #4, #33 );
#13 = CC_DESIGN_APPROVAL( #33, ( #35, #36, #37 ) );
#14 = CC_DESIGN_DATE_AND_TIME_ASSIGNMENT( #4, #5, ( #37 ) );
#15 = CC_DESIGN_DATE_AND_TIME_ASSIGNMENT( #4, #6, ( #35 ) );
#16 = CC_DESIGN_PERSON_AND_ORGANIZATION_ASSIGNMENT( #32, #10, ( #38 ) );
#17 = CC_DESIGN_PERSON_AND_ORGANIZATION_ASSIGNMENT( #32, #7, ( #37 ) );
#18 = CC_DESIGN_PERSON_AND_ORGANIZATION_ASSIGNMENT( #32, #7, ( #36 ) );
#19 = CC_DESIGN_PERSON_AND_ORGANIZATION_ASSIGNMENT( #32, #8, ( #36 ) );
#20 = CC_DESIGN_SECURITY_CLASSIFICATION( #35, ( #36 ) );
#21 = CC_DESIGN_PERSON_AND_ORGANIZATION_ASSIGNMENT( #32, #9, ( #35 ) );
#22 = SHAPE_DEFINITION_REPRESENTATION( #39, #40 );
#23 =  ( GEOMETRIC_REPRESENTATION_CONTEXT( 3 )GLOBAL_UNCERTAINTY_ASSIGNED_CONTEXT( ( #43 ) )GLOBAL_UNIT_ASSIGNED_CONTEXT( ( #45, #46, #47 ) )REPRESENTATION_CONTEXT( 'NONE', 'WORKSPACE' ) );
#27 = APPLICATION_CONTEXT( 'CONFIGURATION CONTROLLED 3D DESIGNS OF MECHANICAL PARTS AND ASSEMBLIES' );
#28 = PRODUCT_CATEGORY( 'part', 'NONE' );
#29 = PRODUCT_RELATED_PRODUCT_CATEGORY( 'detail', ' ', ( #38 ) );
#30 = CALENDAR_DATE( 2011, 29, 11 );
#31 = LOCAL_TIME( 10, 45, 20.0000000000000, #49 );
#32 = PERSON_AND_ORGANIZATION( #50, #51 );
#33 = APPROVAL( #52, 'SOLID MODEL' );
#34 = APPROVAL_ROLE( 'APPROVED' );
#35 = SECURITY_CLASSIFICATION( '', '', #53 );
#36 = PRODUCT_DEFINITION_FORMATION_WITH_SPECIFIED_SOURCE( ' ', 'NONE', #38, .NOT_KNOWN. );
#37 = PRODUCT_DEFINITION( 'NONE', 'NONE', #36, #1 );
#38 = PRODUCT( '1', '1', 'PART-1-DESC', ( #54 ) );
#39 = PRODUCT_DEFINITION_SHAPE( 'NONE', 'NONE', #37 );
#40 = ADVANCED_BREP_SHAPE_REPRESENTATION( '1', ( #55, #56 ), #23 );
#43 = UNCERTAINTY_MEASURE_WITH_UNIT( LENGTH_MEASURE( 1.00000000000000E-006 ), #45, '', '' );
#45 =  ( CONVERSION_BASED_UNIT( 'MILLIMETRE', #59 )LENGTH_UNIT(  )NAMED_UNIT( #62 ) );
#46 =  ( NAMED_UNIT( #64 )PLANE_ANGLE_UNIT(  )SI_UNIT( $, .RADIAN. ) );
#47 =  ( NAMED_UNIT( #64 )SOLID_ANGLE_UNIT(  )SI_UNIT( $, .STERADIAN. ) );
#49 = COORDINATED_UNIVERSAL_TIME_OFFSET( 5, 0, .BEHIND. );
#50 = PERSON( '', 'UNSPECIFIED', $, $, $, $ );
#51 = ORGANIZATION( 'UNSPECIFIED', 'UNSPECIFIED', 'UNSPECIFIED' );
#52 = APPROVAL_STATUS( 'approved' );
#53 = SECURITY_CLASSIFICATION_LEVEL( 'unclassified' );
#54 = MECHANICAL_CONTEXT( '', #27, 'mechanical' );
#55 = MANIFOLD_SOLID_BREP( '1', #70 );
#56 = AXIS2_PLACEMENT_3D( '', #71, #72, #73 );
#59 = LENGTH_MEASURE_WITH_UNIT( LENGTH_MEASURE( 1.00000000000000 ), #74 );
#62 = DIMENSIONAL_EXPONENTS( 1.00000000000000, 0.000000000000000, 0.000000000000000, 0.000000000000000, 0.000000000000000, 0.000000000000000, 0.000000000000000 );
#64 = DIMENSIONAL_EXPONENTS( 0.000000000000000, 0.000000000000000, 0.000000000000000, 0.000000000000000, 0.000000000000000, 0.000000000000000, 0.000000000000000 );
#70 = CLOSED_SHELL( '', ( #75, #76, #77, #78, #79, #80, #81, #82, #83, #84, #85 ) );
#71 = CARTESIAN_POINT( '', ( 0.000000000000000, 0.000000000000000, 0.000000000000000 ) );
#72 = DIRECTION( '', ( 0.000000000000000, 0.000000000000000, 1.00000000000000 ) );
#73 = DIRECTION( '', ( 1.00000000000000, 0.000000000000000, 0.000000000000000 ) );
#74 =  ( NAMED_UNIT( #62 )LENGTH_UNIT(  )SI_UNIT( .MILLI., .METRE. ) );
#75 = ADVANCED_FACE( '', ( #87 ), #88, .F. );
#76 = ADVANCED_FACE( '', ( #89 ), #90, .T. );
#77 = ADVANCED_FACE( '', ( #91 ), #92, .T. );
#78 = ADVANCED_FACE( '', ( #93 ), #94, .T. );
#79 = ADVANCED_FACE( '', ( #95, #96 ), #97, .T. );
#80 = ADVANCED_FACE( '', ( #98 ), #99, .T. );
#81 = ADVANCED_FACE( '', ( #100 ), #101, .T. );
#82 = ADVANCED_FACE( '', ( #102, #103 ), #104, .T. );
#83 = ADVANCED_FACE( '', ( #105 ), #106, .T. );
#84 = ADVANCED_FACE( '', ( #107, #108 ), #109, .T. );
#85 = ADVANCED_FACE( '', ( #110 ), #111, .F. );
#87 = FACE_OUTER_BOUND( '', #112, .T. );
#88 = CYLINDRICAL_SURFACE( '', #113, 28.5000000000000 );
#89 = FACE_OUTER_BOUND( '', #114, .T. );
#90 = CYLINDRICAL_SURFACE( '', #115, 51.0000000000000 );
#91 = FACE_OUTER_BOUND( '', #116, .T. );
#92 = CONICAL_SURFACE( '', #117, 34.5000000000000, 0.266252049150925 );
#93 = FACE_OUTER_BOUND( '', #118, .T. );
#94 = CYLINDRICAL_SURFACE( '', #119, 31.5000000000000 );
#95 = FACE_OUTER_BOUND( '', #120, .T. );
#96 = FACE_BOUND( '', #121, .T. );
#97 = PLANE( '', #122 );
#98 = FACE_OUTER_BOUND( '', #123, .T. );
#99 = CYLINDRICAL_SURFACE( '', #124, 31.5000000000000 );
#100 = FACE_OUTER_BOUND( '', #125, .T. );
#101 = CONICAL_SURFACE( '', #126, 34.5000000000000, 0.266252049150925 );
#102 = FACE_OUTER_BOUND( '', #127, .T. );
#103 = FACE_BOUND( '', #128, .T. );
#104 = PLANE( '', #129 );
#105 = FACE_OUTER_BOUND( '', #130, .T. );
#106 = CYLINDRICAL_SURFACE( '', #131, 51.0000000000000 );
#107 = FACE_BOUND( '', #132, .T. );
#108 = FACE_OUTER_BOUND( '', #133, .T. );
#109 = PLANE( '', #134 );
#110 = FACE_OUTER_BOUND( '', #135, .T. );
#111 = CYLINDRICAL_SURFACE( '', #136, 28.5000000000000 );
#112 = EDGE_LOOP( '', ( #137, #138, #139, #140 ) );
#113 = AXIS2_PLACEMENT_3D( '', #141, #142, #143 );
#114 = EDGE_LOOP( '', ( #144, #145, #146, #147 ) );
#115 = AXIS2_PLACEMENT_3D( '', #148, #149, #150 );
#116 = EDGE_LOOP( '', ( #151, #152, #153, #154 ) );
#117 = AXIS2_PLACEMENT_3D( '', #155, #156, #157 );
#118 = EDGE_LOOP( '', ( #158, #159, #160, #161 ) );
#119 = AXIS2_PLACEMENT_3D( '', #162, #163, #164 );
#120 = EDGE_LOOP( '', ( #165, #166 ) );
#121 = EDGE_LOOP( '', ( #167, #168 ) );
#122 = AXIS2_PLACEMENT_3D( '', #169, #170, #171 );
#123 = EDGE_LOOP( '', ( #172, #173, #174, #175 ) );
#124 = AXIS2_PLACEMENT_3D( '', #176, #177, #178 );
#125 = EDGE_LOOP( '', ( #179, #180, #181, #182 ) );
#126 = AXIS2_PLACEMENT_3D( '', #183, #184, #185 );
#127 = EDGE_LOOP( '', ( #186, #187 ) );
#128 = EDGE_LOOP( '', ( #188, #189 ) );
#129 = AXIS2_PLACEMENT_3D( '', #190, #191, #192 );
#130 = EDGE_LOOP( '', ( #193, #194, #195, #196 ) );
#131 = AXIS2_PLACEMENT_3D( '', #197, #198, #199 );
#132 = EDGE_LOOP( '', ( #200, #201 ) );
#133 = EDGE_LOOP( '', ( #202, #203 ) );
#134 = AXIS2_PLACEMENT_3D( '', #204, #205, #206 );
#135 = EDGE_LOOP( '', ( #207, #208, #209, #210 ) );
#136 = AXIS2_PLACEMENT_3D( '', #211, #212, #213 );
#137 = ORIENTED_EDGE( '', *, *, #214, .F. );
#138 = ORIENTED_EDGE( '', *, *, #215, .F. );
#139 = ORIENTED_EDGE( '', *, *, #216, .F. );
#140 = ORIENTED_EDGE( '', *, *, #217, .T. );
#141 = CARTESIAN_POINT( '', ( -25.0000000000000, 0.000000000000000, 0.000000000000000 ) );
#142 = DIRECTION( '', ( 1.00000000000000, 0.000000000000000, 0.000000000000000 ) );
#143 = DIRECTION( '', ( 0.000000000000000, 1.00000000000000, -2.44921270764475E-016 ) );
#144 = ORIENTED_EDGE( '', *, *, #218, .F. );
#145 = ORIENTED_EDGE( '', *, *, #219, .T. );
#146 = ORIENTED_EDGE( '', *, *, #220, .F. );
#147 = ORIENTED_EDGE( '', *, *, #221, .F. );
#148 = CARTESIAN_POINT( '', ( -45.0000000000000, 0.000000000000000, 0.000000000000000 ) );
#149 = DIRECTION( '', ( 1.00000000000000, 0.000000000000000, 0.000000000000000 ) );
#150 = DIRECTION( '', ( 0.000000000000000, 1.00000000000000, -2.44921270764475E-016 ) );
#151 = ORIENTED_EDGE( '', *, *, #222, .F. );
#152 = ORIENTED_EDGE( '', *, *, #223, .T. );
#153 = ORIENTED_EDGE( '', *, *, #224, .F. );
#154 = ORIENTED_EDGE( '', *, *, #225, .F. );
#155 = CARTESIAN_POINT( '', ( -29.0000000000000, 0.000000000000000, 0.000000000000000 ) );
#156 = DIRECTION( '', ( -1.00000000000000, 0.000000000000000, 0.000000000000000 ) );
#157 = DIRECTION( '', ( 0.000000000000000, 1.00000000000000, -2.44921270764475E-016 ) );
#158 = ORIENTED_EDGE( '', *, *, #226, .F. );
#159 = ORIENTED_EDGE( '', *, *, #227, .T. );
#160 = ORIENTED_EDGE( '', *, *, #228, .F. );
#161 = ORIENTED_EDGE( '', *, *, #223, .F. );
#162 = CARTESIAN_POINT( '', ( -9.00000000000000, 0.000000000000000, 0.000000000000000 ) );
#163 = DIRECTION( '', ( 1.00000000000000, 0.000000000000000, 0.000000000000000 ) );
#164 = DIRECTION( '', ( 0.000000000000000, 1.00000000000000, -2.44921270764475E-016 ) );
#165 = ORIENTED_EDGE( '', *, *, #227, .F. );
#166 = ORIENTED_EDGE( '', *, *, #229, .F. );
#167 = ORIENTED_EDGE( '', *, *, #230, .T. );
#168 = ORIENTED_EDGE( '', *, *, #215, .T. );
#169 = CARTESIAN_POINT( '', ( 0.000000000000000, 30.0000000000000, -7.34763812293426E-015 ) );
#170 = DIRECTION( '', ( 1.00000000000000, 0.000000000000000, 0.000000000000000 ) );
#171 = DIRECTION( '', ( 0.000000000000000, -1.00000000000000, 2.44921270764475E-016 ) );
#172 = ORIENTED_EDGE( '', *, *, #226, .T. );
#173 = ORIENTED_EDGE( '', *, *, #231, .F. );
#174 = ORIENTED_EDGE( '', *, *, #228, .T. );
#175 = ORIENTED_EDGE( '', *, *, #229, .T. );
#176 = CARTESIAN_POINT( '', ( -9.00000000000000, 0.000000000000000, 0.000000000000000 ) );
#177 = DIRECTION( '', ( 1.00000000000000, 0.000000000000000, 0.000000000000000 ) );
#178 = DIRECTION( '', ( 0.000000000000000, 1.00000000000000, -2.44921270764475E-016 ) );
#179 = ORIENTED_EDGE( '', *, *, #222, .T. );
#180 = ORIENTED_EDGE( '', *, *, #232, .F. );
#181 = ORIENTED_EDGE( '', *, *, #224, .T. );
#182 = ORIENTED_EDGE( '', *, *, #231, .T. );
#183 = CARTESIAN_POINT( '', ( -29.0000000000000, 0.000000000000000, 0.000000000000000 ) );
#184 = DIRECTION( '', ( -1.00000000000000, 0.000000000000000, 0.000000000000000 ) );
#185 = DIRECTION( '', ( 0.000000000000000, 1.00000000000000, -2.44921270764475E-016 ) );
#186 = ORIENTED_EDGE( '', *, *, #219, .F. );
#187 = ORIENTED_EDGE( '', *, *, #233, .F. );
#188 = ORIENTED_EDGE( '', *, *, #225, .T. );
#189 = ORIENTED_EDGE( '', *, *, #232, .T. );
#190 = CARTESIAN_POINT( '', ( -40.0000000000000, 44.2500000000000, -1.08377662313280E-014 ) );
#191 = DIRECTION( '', ( 1.00000000000000, 0.000000000000000, 0.000000000000000 ) );
#192 = DIRECTION( '', ( 0.000000000000000, -1.00000000000000, 2.44921270764475E-016 ) );
#193 = ORIENTED_EDGE( '', *, *, #218, .T. );
#194 = ORIENTED_EDGE( '', *, *, #234, .F. );
#195 = ORIENTED_EDGE( '', *, *, #220, .T. );
#196 = ORIENTED_EDGE( '', *, *, #233, .T. );
#197 = CARTESIAN_POINT( '', ( -45.0000000000000, 0.000000000000000, 0.000000000000000 ) );
#198 = DIRECTION( '', ( 1.00000000000000, 0.000000000000000, 0.000000000000000 ) );
#199 = DIRECTION( '', ( 0.000000000000000, 1.00000000000000, -2.44921270764475E-016 ) );
#200 = ORIENTED_EDGE( '', *, *, #235, .F. );
#201 = ORIENTED_EDGE( '', *, *, #217, .F. );
#202 = ORIENTED_EDGE( '', *, *, #221, .T. );
#203 = ORIENTED_EDGE( '', *, *, #234, .T. );
#204 = CARTESIAN_POINT( '', ( -50.0000000000000, 39.7500000000000, -9.73562051288790E-015 ) );
#205 = DIRECTION( '', ( -1.00000000000000, 0.000000000000000, 0.000000000000000 ) );
#206 = DIRECTION( '', ( 0.000000000000000, 1.00000000000000, -2.44921270764475E-016 ) );
#207 = ORIENTED_EDGE( '', *, *, #214, .T. );
#208 = ORIENTED_EDGE( '', *, *, #235, .T. );
#209 = ORIENTED_EDGE( '', *, *, #216, .T. );
#210 = ORIENTED_EDGE( '', *, *, #230, .F. );
#211 = CARTESIAN_POINT( '', ( -25.0000000000000, 0.000000000000000, 0.000000000000000 ) );
#212 = DIRECTION( '', ( 1.00000000000000, 0.000000000000000, 0.000000000000000 ) );
#213 = DIRECTION( '', ( 0.000000000000000, 1.00000000000000, -2.44921270764475E-016 ) );
#214 = EDGE_CURVE( '', #236, #237, #238, .T. );
#215 = EDGE_CURVE( '', #239, #236, #240, .T. );
#216 = EDGE_CURVE( '', #241, #239, #242, .T. );
#217 = EDGE_CURVE( '', #241, #237, #243, .T. );
#218 = EDGE_CURVE( '', #244, #245, #246, .T. );
#219 = EDGE_CURVE( '', #244, #247, #248, .T. );
#220 = EDGE_CURVE( '', #249, #247, #250, .T. );
#221 = EDGE_CURVE( '', #245, #249, #251, .T. );
#222 = EDGE_CURVE( '', #252, #253, #254, .T. );
#223 = EDGE_CURVE( '', #252, #255, #256, .T. );
#224 = EDGE_CURVE( '', #257, #255, #258, .T. );
#225 = EDGE_CURVE( '', #253, #257, #259, .T. );
#226 = EDGE_CURVE( '', #260, #252, #261, .T. );
#227 = EDGE_CURVE( '', #260, #262, #263, .T. );
#228 = EDGE_CURVE( '', #255, #262, #264, .T. );
#229 = EDGE_CURVE( '', #262, #260, #265, .T. );
#230 = EDGE_CURVE( '', #236, #239, #266, .T. );
#231 = EDGE_CURVE( '', #255, #252, #267, .T. );
#232 = EDGE_CURVE( '', #257, #253, #268, .T. );
#233 = EDGE_CURVE( '', #247, #244, #269, .T. );
#234 = EDGE_CURVE( '', #249, #245, #270, .T. );
#235 = EDGE_CURVE( '', #237, #241, #271, .T. );
#236 = VERTEX_POINT( '', #272 );
#237 = VERTEX_POINT( '', #273 );
#238 = LINE( '', #274, #275 );
#239 = VERTEX_POINT( '', #276 );
#240 = CIRCLE( '', #277, 28.5000000000000 );
#241 = VERTEX_POINT( '', #278 );
#242 = LINE( '', #279, #280 );
#243 = CIRCLE( '', #281, 28.5000000000000 );
#244 = VERTEX_POINT( '', #282 );
#245 = VERTEX_POINT( '', #283 );
#246 = LINE( '', #284, #285 );
#247 = VERTEX_POINT( '', #286 );
#248 = CIRCLE( '', #287, 51.0000000000000 );
#249 = VERTEX_POINT( '', #288 );
#250 = LINE( '', #289, #290 );
#251 = CIRCLE( '', #291, 51.0000000000000 );
#252 = VERTEX_POINT( '', #292 );
#253 = VERTEX_POINT( '', #293 );
#254 = LINE( '', #294, #295 );
#255 = VERTEX_POINT( '', #296 );
#256 = CIRCLE( '', #297, 31.5000000000000 );
#257 = VERTEX_POINT( '', #298 );
#258 = LINE( '', #299, #300 );
#259 = CIRCLE( '', #301, 37.5000000000000 );
#260 = VERTEX_POINT( '', #302 );
#261 = LINE( '', #303, #304 );
#262 = VERTEX_POINT( '', #305 );
#263 = CIRCLE( '', #306, 31.5000000000000 );
#264 = LINE( '', #307, #308 );
#265 = CIRCLE( '', #309, 31.5000000000000 );
#266 = CIRCLE( '', #310, 28.5000000000000 );
#267 = CIRCLE( '', #311, 31.5000000000000 );
#268 = CIRCLE( '', #312, 37.5000000000000 );
#269 = CIRCLE( '', #313, 51.0000000000000 );
#270 = CIRCLE( '', #314, 51.0000000000000 );
#271 = CIRCLE( '', #315, 28.5000000000000 );
#272 = CARTESIAN_POINT( '', ( 0.000000000000000, 28.5000000000000, -6.98025621678755E-015 ) );
#273 = CARTESIAN_POINT( '', ( -50.0000000000000, 28.5000000000000, -6.98025621678755E-015 ) );
#274 = CARTESIAN_POINT( '', ( -25.0000000000000, 28.5000000000000, -3.49012810839378E-015 ) );
#275 = VECTOR( '', #316, 1.00000000000000 );
#276 = CARTESIAN_POINT( '', ( 0.000000000000000, -28.5000000000000, 3.49012810839378E-015 ) );
#277 = AXIS2_PLACEMENT_3D( '', #317, #318, #319 );
#278 = CARTESIAN_POINT( '', ( -50.0000000000000, -28.5000000000000, 3.49012810839378E-015 ) );
#279 = CARTESIAN_POINT( '', ( -25.0000000000000, -28.5000000000000, 3.49012810839378E-015 ) );
#280 = VECTOR( '', #320, 1.00000000000000 );
#281 = AXIS2_PLACEMENT_3D( '', #321, #322, #323 );
#282 = CARTESIAN_POINT( '', ( -40.0000000000000, 51.0000000000000, -1.24909848089882E-014 ) );
#283 = CARTESIAN_POINT( '', ( -50.0000000000000, 51.0000000000000, -1.24909848089882E-014 ) );
#284 = CARTESIAN_POINT( '', ( -45.0000000000000, 51.0000000000000, -6.24549240449412E-015 ) );
#285 = VECTOR( '', #324, 1.00000000000000 );
#286 = CARTESIAN_POINT( '', ( -40.0000000000000, -51.0000000000000, 6.24549240449412E-015 ) );
#287 = AXIS2_PLACEMENT_3D( '', #325, #326, #327 );
#288 = CARTESIAN_POINT( '', ( -50.0000000000000, -51.0000000000000, 6.24549240449412E-015 ) );
#289 = CARTESIAN_POINT( '', ( -45.0000000000000, -51.0000000000000, 6.24549240449412E-015 ) );
#290 = VECTOR( '', #328, 1.00000000000000 );
#291 = AXIS2_PLACEMENT_3D( '', #329, #330, #331 );
#292 = CARTESIAN_POINT( '', ( -18.0000000000000, 31.5000000000000, -7.71502002908098E-015 ) );
#293 = CARTESIAN_POINT( '', ( -40.0000000000000, 37.5000000000000, -9.18454765366783E-015 ) );
#294 = CARTESIAN_POINT( '', ( -29.0000000000000, 34.5000000000000, -4.22489192068720E-015 ) );
#295 = VECTOR( '', #332, 1.00000000000000 );
#296 = CARTESIAN_POINT( '', ( -18.0000000000000, -31.5000000000000, 3.85751001454049E-015 ) );
#297 = AXIS2_PLACEMENT_3D( '', #333, #334, #335 );
#298 = CARTESIAN_POINT( '', ( -40.0000000000000, -37.5000000000000, 4.59227382683392E-015 ) );
#299 = CARTESIAN_POINT( '', ( -29.0000000000000, -34.5000000000000, 4.22489192068720E-015 ) );
#300 = VECTOR( '', #336, 1.00000000000000 );
#301 = AXIS2_PLACEMENT_3D( '', #337, #338, #339 );
#302 = CARTESIAN_POINT( '', ( 0.000000000000000, 31.5000000000000, -7.71502002908098E-015 ) );
#303 = CARTESIAN_POINT( '', ( -9.00000000000000, 31.5000000000000, -3.85751001454049E-015 ) );
#304 = VECTOR( '', #340, 1.00000000000000 );
#305 = CARTESIAN_POINT( '', ( 0.000000000000000, -31.5000000000000, 3.85751001454049E-015 ) );
#306 = AXIS2_PLACEMENT_3D( '', #341, #342, #343 );
#307 = CARTESIAN_POINT( '', ( -9.00000000000000, -31.5000000000000, 3.85751001454049E-015 ) );
#308 = VECTOR( '', #344, 1.00000000000000 );
#309 = AXIS2_PLACEMENT_3D( '', #345, #346, #347 );
#310 = AXIS2_PLACEMENT_3D( '', #348, #349, #350 );
#311 = AXIS2_PLACEMENT_3D( '', #351, #352, #353 );
#312 = AXIS2_PLACEMENT_3D( '', #354, #355, #356 );
#313 = AXIS2_PLACEMENT_3D( '', #357, #358, #359 );
#314 = AXIS2_PLACEMENT_3D( '', #360, #361, #362 );
#315 = AXIS2_PLACEMENT_3D( '', #363, #364, #365 );
#316 = DIRECTION( '', ( -1.00000000000000, 0.000000000000000, 0.000000000000000 ) );
#317 = CARTESIAN_POINT( '', ( 0.000000000000000, 0.000000000000000, 0.000000000000000 ) );
#318 = DIRECTION( '', ( -1.00000000000000, 0.000000000000000, 0.000000000000000 ) );
#319 = DIRECTION( '', ( 0.000000000000000, 1.00000000000000, -2.44921270764475E-016 ) );
#320 = DIRECTION( '', ( 1.00000000000000, 0.000000000000000, 0.000000000000000 ) );
#321 = CARTESIAN_POINT( '', ( -50.0000000000000, 0.000000000000000, 0.000000000000000 ) );
#322 = DIRECTION( '', ( -1.00000000000000, 0.000000000000000, 0.000000000000000 ) );
#323 = DIRECTION( '', ( 0.000000000000000, 1.00000000000000, -2.44921270764475E-016 ) );
#324 = DIRECTION( '', ( -1.00000000000000, 0.000000000000000, 0.000000000000000 ) );
#325 = CARTESIAN_POINT( '', ( -40.0000000000000, 0.000000000000000, 0.000000000000000 ) );
#326 = DIRECTION( '', ( -1.00000000000000, 0.000000000000000, 0.000000000000000 ) );
#327 = DIRECTION( '', ( 0.000000000000000, 1.00000000000000, -2.44921270764475E-016 ) );
#328 = DIRECTION( '', ( 1.00000000000000, 0.000000000000000, 0.000000000000000 ) );
#329 = CARTESIAN_POINT( '', ( -50.0000000000000, 0.000000000000000, 0.000000000000000 ) );
#330 = DIRECTION( '', ( -1.00000000000000, 0.000000000000000, 0.000000000000000 ) );
#331 = DIRECTION( '', ( 0.000000000000000, 1.00000000000000, -2.44921270764475E-016 ) );
#332 = DIRECTION( '', ( -0.964763821237732, 0.263117405792109, -3.22215246934277E-017 ) );
#333 = CARTESIAN_POINT( '', ( -18.0000000000000, 0.000000000000000, 0.000000000000000 ) );
#334 = DIRECTION( '', ( -1.00000000000000, 0.000000000000000, 0.000000000000000 ) );
#335 = DIRECTION( '', ( 0.000000000000000, 1.00000000000000, -2.44921270764475E-016 ) );
#336 = DIRECTION( '', ( 0.964763821237732, 0.263117405792109, -3.22215246934277E-017 ) );
#337 = CARTESIAN_POINT( '', ( -40.0000000000000, 0.000000000000000, 0.000000000000000 ) );
#338 = DIRECTION( '', ( -1.00000000000000, 0.000000000000000, 0.000000000000000 ) );
#339 = DIRECTION( '', ( 0.000000000000000, 1.00000000000000, -2.44921270764475E-016 ) );
#340 = DIRECTION( '', ( -1.00000000000000, 0.000000000000000, 0.000000000000000 ) );
#341 = CARTESIAN_POINT( '', ( 0.000000000000000, 0.000000000000000, 0.000000000000000 ) );
#342 = DIRECTION( '', ( -1.00000000000000, 0.000000000000000, 0.000000000000000 ) );
#343 = DIRECTION( '', ( 0.000000000000000, 1.00000000000000, -2.44921270764475E-016 ) );
#344 = DIRECTION( '', ( 1.00000000000000, 0.000000000000000, 0.000000000000000 ) );
#345 = CARTESIAN_POINT( '', ( 0.000000000000000, 0.000000000000000, 0.000000000000000 ) );
#346 = DIRECTION( '', ( -1.00000000000000, 0.000000000000000, 0.000000000000000 ) );
#347 = DIRECTION( '', ( 0.000000000000000, 1.00000000000000, -2.44921270764475E-016 ) );
#348 = CARTESIAN_POINT( '', ( 0.000000000000000, 0.000000000000000, 0.000000000000000 ) );
#349 = DIRECTION( '', ( -1.00000000000000, 0.000000000000000, 0.000000000000000 ) );
#350 = DIRECTION( '', ( 0.000000000000000, 1.00000000000000, -2.44921270764475E-016 ) );
#351 = CARTESIAN_POINT( '', ( -18.0000000000000, 0.000000000000000, 0.000000000000000 ) );
#352 = DIRECTION( '', ( -1.00000000000000, 0.000000000000000, 0.000000000000000 ) );
#353 = DIRECTION( '', ( 0.000000000000000, 1.00000000000000, -2.44921270764475E-016 ) );
#354 = CARTESIAN_POINT( '', ( -40.0000000000000, 0.000000000000000, 0.000000000000000 ) );
#355 = DIRECTION( '', ( -1.00000000000000, 0.000000000000000, 0.000000000000000 ) );
#356 = DIRECTION( '', ( 0.000000000000000, 1.00000000000000, -2.44921270764475E-016 ) );
#357 = CARTESIAN_POINT( '', ( -40.0000000000000, 0.000000000000000, 0.000000000000000 ) );
#358 = DIRECTION( '', ( -1.00000000000000, 0.000000000000000, 0.000000000000000 ) );
#359 = DIRECTION( '', ( 0.000000000000000, 1.00000000000000, -2.44921270764475E-016 ) );
#360 = CARTESIAN_POINT( '', ( -50.0000000000000, 0.000000000000000, 0.000000000000000 ) );
#361 = DIRECTION( '', ( -1.00000000000000, 0.000000000000000, 0.000000000000000 ) );
#362 = DIRECTION( '', ( 0.000000000000000, 1.00000000000000, -2.44921270764475E-016 ) );
#363 = CARTESIAN_POINT( '', ( -50.0000000000000, 0.000000000000000, 0.000000000000000 ) );
#364 = DIRECTION( '', ( -1.00000000000000, 0.000000000000000, 0.000000000000000 ) );
#365 = DIRECTION( '', ( 0.000000000000000, 1.00000000000000, -2.44921270764475E-016 ) );
ENDSEC;
END-ISO-10303-21;
