ISO-10303-21;
HEADER;
FILE_DESCRIPTION (( 'STEP AP203' ),
    '1' );
FILE_NAME ('5513420.STEP',
    '2017-08-17T17:36:09',
    ( '' ),
    ( '' ),
    'SwSTEP 2.0',
    'SolidWorks 2017',
    '' );
FILE_SCHEMA (( 'CONFIG_CONTROL_DESIGN' ));
ENDSEC;

DATA;
#1 = DIRECTION ( 'NONE',  ( 1.000000000000000000, 0.0000000000000000000, 0.0000000000000000000 ) ) ;
#2 = DIRECTION ( 'NONE',  ( -1.000000000000000000, -0.0000000000000000000, 0.0000000000000000000 ) ) ;
#3 = CC_DESIGN_PERSON_AND_ORGANIZATION_ASSIGNMENT ( #78, #196, ( #185 ) ) ;
#4 = ADVANCED_FACE ( 'NONE', ( #357, #401 ), #373, .F. ) ;
#5 = CARTESIAN_POINT ( 'NONE',  ( 65.00000000000000000, 0.0000000000000000000, 0.0000000000000000000 ) ) ;
#6 = DIRECTION ( 'NONE',  ( 1.000000000000000000, 0.0000000000000000000, -0.0000000000000000000 ) ) ;
#7 = CARTESIAN_POINT ( 'NONE',  ( 65.00000000000000000, 0.0000000000000000000, 0.0000000000000000000 ) ) ;
#8 = CARTESIAN_POINT ( 'NONE',  ( 48.60000000000002300, 1.388408565612173300E-062, 3.601633708067896800E-047 ) ) ;
#9 = CARTESIAN_POINT ( 'NONE',  ( 11.00000000000000000, 0.0000000000000000000, 0.0000000000000000000 ) ) ;
#10 = ADVANCED_FACE ( 'NONE', ( #397, #375 ), #379, .T. ) ;
#11 = APPROVAL_STATUS ( 'not_yet_approved' ) ;
#12 = MECHANICAL_CONTEXT ( 'NONE', #235, 'mechanical' ) ;
#13 = CARTESIAN_POINT ( 'NONE',  ( 58.00000000000000000, 0.0000000000000000000, 0.0000000000000000000 ) ) ;
#14 = DIRECTION ( 'NONE',  ( -1.000000000000000000, -0.0000000000000000000, 0.0000000000000000000 ) ) ;
#15 = PRODUCT_DEFINITION ( 'UNKNOWN', '', #185, #163 ) ;
#16 = DIRECTION ( 'NONE',  ( 0.0000000000000000000, 0.0000000000000000000, 1.000000000000000000 ) ) ;
#17 = APPROVAL_ROLE ( '' ) ;
#18 = CARTESIAN_POINT ( 'NONE',  ( 0.0000000000000000000, 0.0000000000000000000, 0.0000000000000000000 ) ) ;
#19 = AXIS2_PLACEMENT_3D ( 'NONE', #29, #260, #117 ) ;
#20 = AXIS2_PLACEMENT_3D ( 'NONE', #13, #70, #261 ) ;
#21 = DIRECTION ( 'NONE',  ( 0.0000000000000000000, 1.000000000000000000, -2.845500125499184800E-016 ) ) ;
#22 =( LENGTH_UNIT ( ) NAMED_UNIT ( * ) SI_UNIT ( .MILLI., .METRE. ) );
#23 = AXIS2_PLACEMENT_3D ( 'NONE', #372, #1, #167 ) ;
#24 = DIRECTION ( 'NONE',  ( 0.0000000000000000000, 0.0000000000000000000, 1.000000000000000000 ) ) ;
#25 = CARTESIAN_POINT ( 'NONE',  ( 0.0000000000000000000, 0.0000000000000000000, 55.00000000000000000 ) ) ;
#26 = DIRECTION ( 'NONE',  ( -1.000000000000000000, 0.0000000000000000000, 0.0000000000000000000 ) ) ;
#27 = AXIS2_PLACEMENT_3D ( 'NONE', #365, #195, #168 ) ;
#28 = CARTESIAN_POINT ( 'NONE',  ( 65.00000000000000000, 0.0000000000000000000, 31.50000000000000000 ) ) ;
#29 = CARTESIAN_POINT ( 'NONE',  ( 48.60000000000002300, 0.0000000000000000000, 0.0000000000000000000 ) ) ;
#30 = AXIS2_PLACEMENT_3D ( 'NONE', #101, #350, #88 ) ;
#31 = PERSON_AND_ORGANIZATION_ROLE ( 'design_owner' ) ;
#32 = AXIS2_PLACEMENT_3D ( 'NONE', #53, #139, #402 ) ;
#33 = CARTESIAN_POINT ( 'NONE',  ( 29.80000000000007200, 0.0000000000000000000, 0.0000000000000000000 ) ) ;
#34 = AXIS2_PLACEMENT_3D ( 'NONE', #100, #387, #398 ) ;
#35 = CIRCLE ( 'NONE', #39, 39.00000000000000000 ) ;
#36 = DIRECTION ( 'NONE',  ( 0.0000000000000000000, 0.0000000000000000000, 1.000000000000000000 ) ) ;
#37 =( NAMED_UNIT ( * ) SI_UNIT ( $, .STERADIAN. ) SOLID_ANGLE_UNIT ( ) );
#38 = DIRECTION ( 'NONE',  ( -1.000000000000000000, -0.0000000000000000000, 0.0000000000000000000 ) ) ;
#39 = AXIS2_PLACEMENT_3D ( 'NONE', #392, #26, #407 ) ;
#40 = SECURITY_CLASSIFICATION_LEVEL ( 'unclassified' ) ;
#41 = APPROVAL_DATE_TIME ( #42, #296 ) ;
#42 = DATE_AND_TIME ( #44, #48 ) ;
#43 = DIRECTION ( 'NONE',  ( -1.000000000000000000, -0.0000000000000000000, 0.0000000000000000000 ) ) ;
#44 = CALENDAR_DATE ( 2017, 17, 8 ) ;
#45 = SECURITY_CLASSIFICATION ( '', '', #40 ) ;
#46 = EDGE_CURVE ( 'NONE', #120, #120, #378, .T. ) ;
#47 = DIRECTION ( 'NONE',  ( 0.0000000000000000000, 0.0000000000000000000, 1.000000000000000000 ) ) ;
#48 = LOCAL_TIME ( 13, 36, 9.000000000000000000, #49 ) ;
#49 = COORDINATED_UNIVERSAL_TIME_OFFSET ( 5, 0, .BEHIND. ) ;
#50 = APPROVAL_PERSON_ORGANIZATION ( #51, #296, #17 ) ;
#51 = PERSON_AND_ORGANIZATION ( #247, #162 ) ;
#52 = DIRECTION ( 'NONE',  ( 0.0000000000000000000, 1.000000000000000000, -2.222222222222223900E-016 ) ) ;
#53 = CARTESIAN_POINT ( 'NONE',  ( 0.0000000000000000000, 0.0000000000000000000, 0.0000000000000000000 ) ) ;
#54 = DATE_AND_TIME ( #107, #84 ) ;
#55 = CIRCLE ( 'NONE', #152, 28.49999999999999600 ) ;
#56 = FACE_BOUND ( 'NONE', #349, .T. ) ;
#57 = DIRECTION ( 'NONE',  ( 0.0000000000000000000, 0.0000000000000000000, 1.000000000000000000 ) ) ;
#58 = APPROVAL_DATE_TIME ( #80, #265 ) ;
#59 = CONICAL_SURFACE ( 'NONE', #124, 39.00000000000000000, 0.5681047324744279400 ) ;
#60 = CIRCLE ( 'NONE', #363, 31.50000000000000000 ) ;
#61 = PERSON_AND_ORGANIZATION ( #247, #162 ) ;
#62 = DIRECTION ( 'NONE',  ( -1.000000000000000000, -0.0000000000000000000, 0.0000000000000000000 ) ) ;
#63 = APPLICATION_PROTOCOL_DEFINITION ( 'international standard', 'config_control_design', 1994, #400 ) ;
#64 = CYLINDRICAL_SURFACE ( 'NONE', #99, 28.50000000000000000 ) ;
#65 = FACE_BOUND ( 'NONE', #263, .T. ) ;
#66 = CARTESIAN_POINT ( 'NONE',  ( 0.0000000000000000000, 0.0000000000000000000, 49.70000000000000300 ) ) ;
#67 = FACE_OUTER_BOUND ( 'NONE', #319, .T. ) ;
#68 = COORDINATED_UNIVERSAL_TIME_OFFSET ( 5, 0, .BEHIND. ) ;
#69 = PRODUCT ( '5513420', '5513420', '', ( #12 ) ) ;
#70 = DIRECTION ( 'NONE',  ( -1.000000000000000000, -0.0000000000000000000, 0.0000000000000000000 ) ) ;
#71 = APPROVAL_PERSON_ORGANIZATION ( #106, #265, #302 ) ;
#72 = CIRCLE ( 'NONE', #391, 49.70000000000000300 ) ;
#73 = CARTESIAN_POINT ( 'NONE',  ( 58.00000000000000000, 28.49999999999999600, -1.000000000000000600E-014 ) ) ;
#74 = FACE_OUTER_BOUND ( 'NONE', #330, .T. ) ;
#75 = MANIFOLD_SOLID_BREP ( 'Imported1', #282 ) ;
#76 = EDGE_CURVE ( 'NONE', #112, #112, #381, .T. ) ;
#77 = CARTESIAN_POINT ( 'NONE',  ( 29.80000000000007200, 44.99999999999999300, -1.000000000000000600E-014 ) ) ;
#78 = PERSON_AND_ORGANIZATION ( #247, #162 ) ;
#79 = FACE_OUTER_BOUND ( 'NONE', #323, .T. ) ;
#80 = DATE_AND_TIME ( #105, #102 ) ;
#81 = COORDINATED_UNIVERSAL_TIME_OFFSET ( 5, 0, .BEHIND. ) ;
#82 = PERSON_AND_ORGANIZATION_ROLE ( 'classification_officer' ) ;
#83 = CARTESIAN_POINT ( 'NONE',  ( 11.00000000000000000, 0.0000000000000000000, 0.0000000000000000000 ) ) ;
#84 = LOCAL_TIME ( 13, 36, 9.000000000000000000, #68 ) ;
#85 = PERSON_AND_ORGANIZATION ( #247, #162 ) ;
#86 = AXIS2_PLACEMENT_3D ( 'NONE', #83, #385, #253 ) ;
#87 = ADVANCED_FACE ( 'NONE', ( #318, #207 ), #64, .F. ) ;
#88 = DIRECTION ( 'NONE',  ( 0.0000000000000000000, 0.0000000000000000000, 1.000000000000000000 ) ) ;
#89 = CARTESIAN_POINT ( 'NONE',  ( 48.60000000000002300, 0.0000000000000000000, 0.0000000000000000000 ) ) ;
#90 = ADVANCED_FACE ( 'NONE', ( #367, #109 ), #141, .T. ) ;
#91 = EDGE_CURVE ( 'NONE', #119, #119, #374, .T. ) ;
#92 = DIRECTION ( 'NONE',  ( 0.0000000000000000000, 0.0000000000000000000, 1.000000000000000000 ) ) ;
#93 = DIRECTION ( 'NONE',  ( 1.000000000000000000, 0.0000000000000000000, 0.0000000000000000000 ) ) ;
#94 = FACE_BOUND ( 'NONE', #344, .T. ) ;
#95 = FACE_OUTER_BOUND ( 'NONE', #331, .T. ) ;
#96 = FACE_OUTER_BOUND ( 'NONE', #320, .T. ) ;
#97 = CARTESIAN_POINT ( 'NONE',  ( 0.0000000000000000000, -55.00000000000000700, 55.66000210835195400 ) ) ;
#98 = EDGE_CURVE ( 'NONE', #118, #118, #72, .T. ) ;
#99 = AXIS2_PLACEMENT_3D ( 'NONE', #7, #14, #281 ) ;
#100 = CARTESIAN_POINT ( 'NONE',  ( 58.00000000000000000, 0.0000000000000000000, 0.0000000000000000000 ) ) ;
#101 = CARTESIAN_POINT ( 'NONE',  ( 20.39999999999998800, 0.0000000000000000000, 0.0000000000000000000 ) ) ;
#102 = LOCAL_TIME ( 13, 36, 9.000000000000000000, #81 ) ;
#103 = DATE_AND_TIME ( #134, #137 ) ;
#104 = DIRECTION ( 'NONE',  ( 1.000000000000000000, -0.0000000000000000000, -0.0000000000000000000 ) ) ;
#105 = CALENDAR_DATE ( 2017, 17, 8 ) ;
#106 = PERSON_AND_ORGANIZATION ( #247, #162 ) ;
#107 = CALENDAR_DATE ( 2017, 17, 8 ) ;
#108 = CARTESIAN_POINT ( 'NONE',  ( 29.80000000000007200, 0.0000000000000000000, 0.0000000000000000000 ) ) ;
#109 = FACE_OUTER_BOUND ( 'NONE', #324, .T. ) ;
#110 = CYLINDRICAL_SURFACE ( 'NONE', #19, 36.00000000000000700 ) ;
#111 = CIRCLE ( 'NONE', #27, 39.00000000000000000 ) ;
#112 = VERTEX_POINT ( 'NONE', #409 ) ;
#113 = AXIS2_PLACEMENT_3D ( 'NONE', #131, #360, #177 ) ;
#114 = VERTEX_POINT ( 'NONE', #179 ) ;
#115 = DIRECTION ( 'NONE',  ( 1.000000000000000000, -0.0000000000000000000, -0.0000000000000000000 ) ) ;
#116 = CIRCLE ( 'NONE', #368, 42.00000000000001400 ) ;
#117 = DIRECTION ( 'NONE',  ( 1.927470528863118600E-016, 0.0000000000000000000, 1.000000000000000000 ) ) ;
#118 = VERTEX_POINT ( 'NONE', #132 ) ;
#119 = VERTEX_POINT ( 'NONE', #361 ) ;
#120 = VERTEX_POINT ( 'NONE', #219 ) ;
#121 = CIRCLE ( 'NONE', #113, 31.50000000000000000 ) ;
#122 = FACE_OUTER_BOUND ( 'NONE', #352, .T. ) ;
#123 = DIRECTION ( 'NONE',  ( 1.000000000000000000, -0.0000000000000000000, -0.0000000000000000000 ) ) ;
#124 = AXIS2_PLACEMENT_3D ( 'NONE', #335, #339, #36 ) ;
#125 = DIRECTION ( 'NONE',  ( 0.0000000000000000000, 0.0000000000000000000, 1.000000000000000000 ) ) ;
#126 = CYLINDRICAL_SURFACE ( 'NONE', #170, 39.00000000000000000 ) ;
#127 = CARTESIAN_POINT ( 'NONE',  ( 58.00000000000000000, 0.0000000000000000000, 0.0000000000000000000 ) ) ;
#128 = FACE_OUTER_BOUND ( 'NONE', #283, .T. ) ;
#129 = CONICAL_SURFACE ( 'NONE', #310, 36.00000000000000700, 0.6734422416549926700 ) ;
#130 = SHAPE_DEFINITION_REPRESENTATION ( #218, #224 ) ;
#131 = CARTESIAN_POINT ( 'NONE',  ( 58.00000000000000000, 0.0000000000000000000, 0.0000000000000000000 ) ) ;
#132 = CARTESIAN_POINT ( 'NONE',  ( 11.00000000000000000, 49.70000000000000300, -1.000000000000000800E-014 ) ) ;
#133 = ADVANCED_FACE ( 'NONE', ( #358, #94 ), #250, .T. ) ;
#134 = CALENDAR_DATE ( 2017, 17, 8 ) ;
#135 = CARTESIAN_POINT ( 'NONE',  ( 11.00000000000000000, 55.00000000000000000, -1.000000000000000900E-014 ) ) ;
#136 = DATE_TIME_ROLE ( 'creation_date' ) ;
#137 = LOCAL_TIME ( 13, 36, 9.000000000000000000, #142 ) ;
#138 = AXIS2_PLACEMENT_3D ( 'NONE', #300, #148, #309 ) ;
#139 = DIRECTION ( 'NONE',  ( -1.000000000000000000, -0.0000000000000000000, 0.0000000000000000000 ) ) ;
#140 = EDGE_CURVE ( 'NONE', #114, #114, #214, .T. ) ;
#141 = PLANE ( 'NONE',  #233 ) ;
#142 = COORDINATED_UNIVERSAL_TIME_OFFSET ( 5, 0, .BEHIND. ) ;
#143 = PERSON_AND_ORGANIZATION ( #247, #162 ) ;
#144 = APPROVAL_DATE_TIME ( #145, #164 ) ;
#145 = DATE_AND_TIME ( #146, #149 ) ;
#146 = CALENDAR_DATE ( 2017, 17, 8 ) ;
#147 = CARTESIAN_POINT ( 'NONE',  ( 39.20000000000005300, 0.0000000000000000000, 0.0000000000000000000 ) ) ;
#148 = DIRECTION ( 'NONE',  ( -1.000000000000000000, -1.364746275784605400E-032, -4.130293990420968200E-017 ) ) ;
#149 = LOCAL_TIME ( 13, 36, 9.000000000000000000, #150 ) ;
#150 = COORDINATED_UNIVERSAL_TIME_OFFSET ( 5, 0, .BEHIND. ) ;
#151 = VERTEX_POINT ( 'NONE', #77 ) ;
#152 = AXIS2_PLACEMENT_3D ( 'NONE', #127, #93, #178 ) ;
#153 = APPROVAL_PERSON_ORGANIZATION ( #156, #164, #369 ) ;
#154 = VERTEX_POINT ( 'NONE', #66 ) ;
#155 = PRODUCT_RELATED_PRODUCT_CATEGORY ( 'detail', '', ( #69 ) ) ;
#156 = PERSON_AND_ORGANIZATION ( #247, #162 ) ;
#157 =( NAMED_UNIT ( * ) PLANE_ANGLE_UNIT ( ) SI_UNIT ( $, .RADIAN. ) );
#158 = CARTESIAN_POINT ( 'NONE',  ( 48.60000000000002300, 39.00000000000000000, -1.000000000000000900E-014 ) ) ;
#159 = ORIENTED_EDGE ( 'NONE', *, *, #403, .T. ) ;
#160 = VERTEX_POINT ( 'NONE', #297 ) ;
#161 = PERSON_AND_ORGANIZATION ( #247, #162 ) ;
#162 = ORGANIZATION ( 'UNSPECIFIED', 'UNSPECIFIED', '' ) ;
#163 = DESIGN_CONTEXT ( 'detailed design', #400, 'design' ) ;
#164 = APPROVAL ( #340, 'UNSPECIFIED' ) ;
#165 = AXIS2_PLACEMENT_3D ( 'NONE', #173, #353, #24 ) ;
#166 = DIRECTION ( 'NONE',  ( 0.0000000000000000000, 1.000000000000000000, -2.380952380952383300E-016 ) ) ;
#167 = DIRECTION ( 'NONE',  ( 0.0000000000000000000, 1.000000000000000000, -2.777777777777779500E-016 ) ) ;
#168 = DIRECTION ( 'NONE',  ( 0.0000000000000000000, 1.000000000000000000, -2.564102564102566600E-016 ) ) ;
#169 = AXIS2_PLACEMENT_3D ( 'NONE', #33, #370, #217 ) ;
#170 = AXIS2_PLACEMENT_3D ( 'NONE', #147, #62, #208 ) ;
#171 = DIRECTION ( 'NONE',  ( -1.000000000000000000, 0.0000000000000000000, -0.0000000000000000000 ) ) ;
#172 = DIRECTION ( 'NONE',  ( -1.000000000000000000, 0.0000000000000000000, 0.0000000000000000000 ) ) ;
#173 = CARTESIAN_POINT ( 'NONE',  ( 65.00000000000000000, 0.0000000000000000000, 0.0000000000000000000 ) ) ;
#174 = VERTEX_POINT ( 'NONE', #338 ) ;
#175 = ADVANCED_FACE ( 'NONE', ( #216, #74 ), #110, .F. ) ;
#176 = ORIENTED_EDGE ( 'NONE', *, *, #404, .F. ) ;
#177 = DIRECTION ( 'NONE',  ( 0.0000000000000000000, 1.000000000000000000, -3.174603174603177600E-016 ) ) ;
#178 = DIRECTION ( 'NONE',  ( 0.0000000000000000000, 1.000000000000000000, -3.508771929824563900E-016 ) ) ;
#179 = CARTESIAN_POINT ( 'NONE',  ( 20.39999999999998800, 45.00000000000000000, -1.157083823759805600E-014 ) ) ;
#180 = CIRCLE ( 'NONE', #86, 55.00000000000000000 ) ;
#181 = VERTEX_POINT ( 'NONE', #28 ) ;
#182 = CC_DESIGN_APPROVAL ( #164, ( #15 ) ) ;
#183 = VERTEX_POINT ( 'NONE', #270 ) ;
#184 = APPROVAL_STATUS ( 'not_yet_approved' ) ;
#185 = PRODUCT_DEFINITION_FORMATION_WITH_SPECIFIED_SOURCE ( 'ANY', '', #69, .NOT_KNOWN. ) ;
#186 = DIRECTION ( 'NONE',  ( -1.000000000000000000, -3.715142639635872300E-032, -9.637352644315595200E-017 ) ) ;
#187 = CARTESIAN_POINT ( 'NONE',  ( 0.0000000000000000000, 0.0000000000000000000, 0.0000000000000000000 ) ) ;
#188 = VERTEX_POINT ( 'NONE', #362 ) ;
#189 = VERTEX_POINT ( 'NONE', #158 ) ;
#190 = DIRECTION ( 'NONE',  ( 0.0000000000000000000, -1.000000000000000000, 2.202823461557849800E-016 ) ) ;
#191 = AXIS2_PLACEMENT_3D ( 'NONE', #313, #389, #92 ) ;
#192 = CARTESIAN_POINT ( 'NONE',  ( 11.00000000000000000, 0.0000000000000000000, 0.0000000000000000000 ) ) ;
#193 = CIRCLE ( 'NONE', #205, 44.99999999999999300 ) ;
#194 = CONICAL_SURFACE ( 'NONE', #258, 49.70000000000001700, 0.8163161429604921500 ) ;
#195 = DIRECTION ( 'NONE',  ( -1.000000000000000000, -0.0000000000000000000, -0.0000000000000000000 ) ) ;
#196 = PERSON_AND_ORGANIZATION_ROLE ( 'creator' ) ;
#197 = VERTEX_POINT ( 'NONE', #135 ) ;
#198 = VERTEX_POINT ( 'NONE', #25 ) ;
#199 = DIRECTION ( 'NONE',  ( 0.0000000000000000000, 1.000000000000000000, -2.523234146875355000E-016 ) ) ;
#200 = VERTEX_POINT ( 'NONE', #73 ) ;
#201 = EDGE_LOOP ( 'NONE', ( #294 ) ) ;
#202 = DATE_TIME_ROLE ( 'classification_date' ) ;
#203 = AXIS2_PLACEMENT_3D ( 'NONE', #332, #204, #329 ) ;
#204 = DIRECTION ( 'NONE',  ( -1.000000000000000000, -0.0000000000000000000, -0.0000000000000000000 ) ) ;
#205 = AXIS2_PLACEMENT_3D ( 'NONE', #322, #172, #52 ) ;
#206 = FACE_BOUND ( 'NONE', #346, .T. ) ;
#207 = FACE_OUTER_BOUND ( 'NONE', #276, .T. ) ;
#208 = DIRECTION ( 'NONE',  ( 0.0000000000000000000, 0.0000000000000000000, 1.000000000000000000 ) ) ;
#209 = FACE_OUTER_BOUND ( 'NONE', #343, .T. ) ;
#210 = ORIENTED_EDGE ( 'NONE', *, *, #275, .T. ) ;
#211 =( GEOMETRIC_REPRESENTATION_CONTEXT ( 3 ) GLOBAL_UNCERTAINTY_ASSIGNED_CONTEXT ( ( #393 ) ) GLOBAL_UNIT_ASSIGNED_CONTEXT ( ( #22, #157, #37 ) ) REPRESENTATION_CONTEXT ( 'NONE', 'WORKASPACE' ) );
#212 = DIRECTION ( 'NONE',  ( 0.0000000000000000000, 0.0000000000000000000, 1.000000000000000000 ) ) ;
#213 = CC_DESIGN_DATE_AND_TIME_ASSIGNMENT ( #103, #136, ( #15 ) ) ;
#214 = CIRCLE ( 'NONE', #203, 45.00000000000000000 ) ;
#215 = AXIS2_PLACEMENT_3D ( 'NONE', #187, #2, #57 ) ;
#216 = FACE_OUTER_BOUND ( 'NONE', #201, .T. ) ;
#217 = DIRECTION ( 'NONE',  ( 8.260587980841938800E-017, 0.0000000000000000000, 1.000000000000000000 ) ) ;
#218 = PRODUCT_DEFINITION_SHAPE ( 'NONE', 'NONE',  #15 ) ;
#219 = CARTESIAN_POINT ( 'NONE',  ( 65.00000000000000000, 0.0000000000000000000, 28.50000000000000000 ) ) ;
#220 = ADVANCED_FACE ( 'NONE', ( #79, #209 ), #388, .T. ) ;
#221 = FACE_BOUND ( 'NONE', #299, .T. ) ;
#222 = ORIENTED_EDGE ( 'NONE', *, *, #286, .F. ) ;
#223 = ADVANCED_FACE ( 'NONE', ( #56, #405 ), #383, .F. ) ;
#224 = ADVANCED_BREP_SHAPE_REPRESENTATION ( '5513420', ( #75, #226 ), #211 ) ;
#225 = CIRCLE ( 'NONE', #399, 41.99999999999999300 ) ;
#226 = AXIS2_PLACEMENT_3D ( 'NONE', #18, #212, #356 ) ;
#227 = CIRCLE ( 'NONE', #215, 49.70000000000000300 ) ;
#228 = CYLINDRICAL_SURFACE ( 'NONE', #342, 45.00000000000000000 ) ;
#229 = CYLINDRICAL_SURFACE ( 'NONE', #169, 42.00000000000000000 ) ;
#230 = CYLINDRICAL_SURFACE ( 'NONE', #32, 55.00000000000000000 ) ;
#231 = CC_DESIGN_APPROVAL ( #265, ( #185 ) ) ;
#232 = FACE_OUTER_BOUND ( 'NONE', #292, .T. ) ;
#233 = AXIS2_PLACEMENT_3D ( 'NONE', #268, #333, #190 ) ;
#234 = AXIS2_PLACEMENT_3D ( 'NONE', #97, #171, #199 ) ;
#235 = APPLICATION_CONTEXT ( 'configuration controlled 3d designs of mechanical parts and assemblies' ) ;
#236 = FACE_OUTER_BOUND ( 'NONE', #325, .T. ) ;
#237 = FACE_OUTER_BOUND ( 'NONE', #269, .T. ) ;
#238 = FACE_OUTER_BOUND ( 'NONE', #284, .T. ) ;
#239 = ADVANCED_FACE ( 'NONE', ( #96, #95 ), #229, .F. ) ;
#240 = DIRECTION ( 'NONE',  ( -1.927470528863118600E-016, 0.0000000000000000000, 1.000000000000000000 ) ) ;
#241 = EDGE_CURVE ( 'NONE', #181, #181, #60, .T. ) ;
#242 = FACE_BOUND ( 'NONE', #316, .T. ) ;
#243 = FACE_OUTER_BOUND ( 'NONE', #306, .T. ) ;
#244 = APPLICATION_PROTOCOL_DEFINITION ( 'international standard', 'config_control_design', 1994, #235 ) ;
#245 = FACE_OUTER_BOUND ( 'NONE', #279, .T. ) ;
#246 = CIRCLE ( 'NONE', #191, 55.00000000000000000 ) ;
#247 = PERSON ( 'UNSPECIFIED', 'UNSPECIFIED', 'UNSPECIFIED', ('UNSPECIFIED'), ('UNSPECIFIED'), ('UNSPECIFIED') ) ;
#248 = CARTESIAN_POINT ( 'NONE',  ( 11.00000000000000400, 0.0000000000000000000, 0.0000000000000000000 ) ) ;
#249 = ADVANCED_FACE ( 'NONE', ( #237, #238 ), #230, .T. ) ;
#250 = CONICAL_SURFACE ( 'NONE', #34, 31.50000000000000000, 0.6734422416549924500 ) ;
#251 = ADVANCED_FACE ( 'NONE', ( #236, #232 ), #228, .T. ) ;
#252 = CC_DESIGN_DATE_AND_TIME_ASSIGNMENT ( #54, #202, ( #45 ) ) ;
#253 = DIRECTION ( 'NONE',  ( 0.0000000000000000000, 1.000000000000000000, -1.818181818181819900E-016 ) ) ;
#254 = EDGE_LOOP ( 'NONE', ( #271 ) ) ;
#255 = ORIENTED_EDGE ( 'NONE', *, *, #275, .F. ) ;
#256 = ORIENTED_EDGE ( 'NONE', *, *, #46, .F. ) ;
#257 = ADVANCED_FACE ( 'NONE', ( #384, #206 ), #59, .T. ) ;
#258 = AXIS2_PLACEMENT_3D ( 'NONE', #248, #38, #47 ) ;
#259 = PLANE ( 'NONE',  #234 ) ;
#260 = DIRECTION ( 'NONE',  ( -1.000000000000000000, 3.715142639635872300E-032, 9.637352644315595200E-017 ) ) ;
#261 = DIRECTION ( 'NONE',  ( 0.0000000000000000000, 0.0000000000000000000, 1.000000000000000000 ) ) ;
#262 = ORIENTED_EDGE ( 'NONE', *, *, #291, .T. ) ;
#263 = EDGE_LOOP ( 'NONE', ( #311 ) ) ;
#264 = EDGE_LOOP ( 'NONE', ( #354 ) ) ;
#265 = APPROVAL ( #11, 'UNSPECIFIED' ) ;
#266 = ORIENTED_EDGE ( 'NONE', *, *, #305, .T. ) ;
#267 = DIRECTION ( 'NONE',  ( -1.000000000000000000, -0.0000000000000000000, 0.0000000000000000000 ) ) ;
#268 = CARTESIAN_POINT ( 'NONE',  ( 65.00000000000000000, 31.50000000000001400, 31.87800105406128600 ) ) ;
#269 = EDGE_LOOP ( 'NONE', ( #295 ) ) ;
#270 = CARTESIAN_POINT ( 'NONE',  ( 29.80000000000007200, 41.99999999999999300, -1.000000000000000800E-014 ) ) ;
#271 = ORIENTED_EDGE ( 'NONE', *, *, #273, .F. ) ;
#272 = PERSON_AND_ORGANIZATION_ROLE ( 'design_supplier' ) ;
#273 = EDGE_CURVE ( 'NONE', #189, #189, #35, .T. ) ;
#274 = ORIENTED_EDGE ( 'NONE', *, *, #291, .F. ) ;
#275 = EDGE_CURVE ( 'NONE', #188, #188, #116, .T. ) ;
#276 = EDGE_LOOP ( 'NONE', ( #274 ) ) ;
#277 = CC_DESIGN_APPROVAL ( #296, ( #45 ) ) ;
#278 = CARTESIAN_POINT ( 'NONE',  ( 18.23800000000000000, 0.0000000000000000000, 0.0000000000000000000 ) ) ;
#279 = EDGE_LOOP ( 'NONE', ( #288 ) ) ;
#280 = ORIENTED_EDGE ( 'NONE', *, *, #377, .F. ) ;
#281 = DIRECTION ( 'NONE',  ( 0.0000000000000000000, 0.0000000000000000000, 1.000000000000000000 ) ) ;
#282 = CLOSED_SHELL ( 'NONE', ( #4, #314, #371, #249, #239, #10, #223, #251, #175, #257, #396, #394, #87, #133, #90, #220 ) ) ;
#283 = EDGE_LOOP ( 'NONE', ( #345 ) ) ;
#284 = EDGE_LOOP ( 'NONE', ( #337 ) ) ;
#285 = ORIENTED_EDGE ( 'NONE', *, *, #380, .T. ) ;
#286 = EDGE_CURVE ( 'NONE', #183, #183, #225, .T. ) ;
#287 = ORIENTED_EDGE ( 'NONE', *, *, #98, .T. ) ;
#288 = ORIENTED_EDGE ( 'NONE', *, *, #98, .F. ) ;
#289 = DIRECTION ( 'NONE',  ( 0.0000000000000000000, 1.000000000000000000, -2.777777777777779500E-016 ) ) ;
#290 = ORIENTED_EDGE ( 'NONE', *, *, #241, .F. ) ;
#291 = EDGE_CURVE ( 'NONE', #200, #200, #55, .T. ) ;
#292 = EDGE_LOOP ( 'NONE', ( #285 ) ) ;
#293 = ORIENTED_EDGE ( 'NONE', *, *, #91, .F. ) ;
#294 = ORIENTED_EDGE ( 'NONE', *, *, #91, .T. ) ;
#295 = ORIENTED_EDGE ( 'NONE', *, *, #305, .F. ) ;
#296 = APPROVAL ( #184, 'UNSPECIFIED' ) ;
#297 = CARTESIAN_POINT ( 'NONE',  ( 39.20000000000005300, 39.00000000000000000, -1.000000000000000900E-014 ) ) ;
#298 = ORIENTED_EDGE ( 'NONE', *, *, #404, .T. ) ;
#299 = EDGE_LOOP ( 'NONE', ( #262 ) ) ;
#300 = CARTESIAN_POINT ( 'NONE',  ( 29.80000000000007200, 2.185832727202835100E-063, 6.615245586247149600E-048 ) ) ;
#301 = ORIENTED_EDGE ( 'NONE', *, *, #403, .F. ) ;
#302 = APPROVAL_ROLE ( '' ) ;
#303 = CARTESIAN_POINT ( 'NONE',  ( 20.39999999999997000, 0.0000000000000000000, 0.0000000000000000000 ) ) ;
#304 = ORIENTED_EDGE ( 'NONE', *, *, #140, .T. ) ;
#305 = EDGE_CURVE ( 'NONE', #198, #198, #246, .T. ) ;
#306 = EDGE_LOOP ( 'NONE', ( #266 ) ) ;
#307 = ORIENTED_EDGE ( 'NONE', *, *, #76, .T. ) ;
#308 = EDGE_LOOP ( 'NONE', ( #287 ) ) ;
#309 = DIRECTION ( 'NONE',  ( -8.260587980841937500E-017, 0.0000000000000000000, 1.000000000000000000 ) ) ;
#310 = AXIS2_PLACEMENT_3D ( 'NONE', #8, #186, #240 ) ;
#311 = ORIENTED_EDGE ( 'NONE', *, *, #386, .F. ) ;
#312 = ORIENTED_EDGE ( 'NONE', *, *, #386, .T. ) ;
#313 = CARTESIAN_POINT ( 'NONE',  ( 0.0000000000000000000, 0.0000000000000000000, 0.0000000000000000000 ) ) ;
#314 = ADVANCED_FACE ( 'NONE', ( #65, #243 ), #259, .T. ) ;
#315 = PERSON_AND_ORGANIZATION_ROLE ( 'creator' ) ;
#316 = EDGE_LOOP ( 'NONE', ( #210 ) ) ;
#317 = EDGE_LOOP ( 'NONE', ( #256 ) ) ;
#318 = FACE_OUTER_BOUND ( 'NONE', #264, .T. ) ;
#319 = EDGE_LOOP ( 'NONE', ( #301 ) ) ;
#320 = EDGE_LOOP ( 'NONE', ( #348 ) ) ;
#321 = CC_DESIGN_PERSON_AND_ORGANIZATION_ASSIGNMENT ( #85, #82, ( #45 ) ) ;
#322 = CARTESIAN_POINT ( 'NONE',  ( 29.80000000000007200, 0.0000000000000000000, 0.0000000000000000000 ) ) ;
#323 = EDGE_LOOP ( 'NONE', ( #176 ) ) ;
#324 = EDGE_LOOP ( 'NONE', ( #355 ) ) ;
#325 = EDGE_LOOP ( 'NONE', ( #327 ) ) ;
#326 = DIRECTION ( 'NONE',  ( 0.0000000000000000000, 0.0000000000000000000, 1.000000000000000000 ) ) ;
#327 = ORIENTED_EDGE ( 'NONE', *, *, #140, .F. ) ;
#328 = EDGE_LOOP ( 'NONE', ( #222 ) ) ;
#329 = DIRECTION ( 'NONE',  ( 0.0000000000000000000, 1.000000000000000000, -2.571297386132901600E-016 ) ) ;
#330 = EDGE_LOOP ( 'NONE', ( #336 ) ) ;
#331 = EDGE_LOOP ( 'NONE', ( #255 ) ) ;
#332 = CARTESIAN_POINT ( 'NONE',  ( 20.39999999999998800, 0.0000000000000000000, 0.0000000000000000000 ) ) ;
#333 = DIRECTION ( 'NONE',  ( 1.000000000000000000, 0.0000000000000000000, 0.0000000000000000000 ) ) ;
#334 = ORIENTED_EDGE ( 'NONE', *, *, #380, .F. ) ;
#335 = CARTESIAN_POINT ( 'NONE',  ( 39.20000000000005300, 0.0000000000000000000, 0.0000000000000000000 ) ) ;
#336 = ORIENTED_EDGE ( 'NONE', *, *, #76, .F. ) ;
#337 = ORIENTED_EDGE ( 'NONE', *, *, #377, .T. ) ;
#338 = CARTESIAN_POINT ( 'NONE',  ( 58.00000000000000000, 31.50000000000000000, -1.000000000000000900E-014 ) ) ;
#339 = DIRECTION ( 'NONE',  ( -1.000000000000000000, -0.0000000000000000000, 0.0000000000000000000 ) ) ;
#340 = APPROVAL_STATUS ( 'not_yet_approved' ) ;
#341 = EDGE_LOOP ( 'NONE', ( #334 ) ) ;
#342 = AXIS2_PLACEMENT_3D ( 'NONE', #303, #267, #125 ) ;
#343 = EDGE_LOOP ( 'NONE', ( #290 ) ) ;
#344 = EDGE_LOOP ( 'NONE', ( #298 ) ) ;
#345 = ORIENTED_EDGE ( 'NONE', *, *, #273, .T. ) ;
#346 = EDGE_LOOP ( 'NONE', ( #159 ) ) ;
#347 = EDGE_LOOP ( 'NONE', ( #280 ) ) ;
#348 = ORIENTED_EDGE ( 'NONE', *, *, #286, .T. ) ;
#349 = EDGE_LOOP ( 'NONE', ( #307 ) ) ;
#350 = DIRECTION ( 'NONE',  ( -1.000000000000000000, -0.0000000000000000000, 0.0000000000000000000 ) ) ;
#351 = CC_DESIGN_SECURITY_CLASSIFICATION ( #45, ( #185 ) ) ;
#352 = EDGE_LOOP ( 'NONE', ( #293 ) ) ;
#353 = DIRECTION ( 'NONE',  ( 1.000000000000000000, 0.0000000000000000000, -0.0000000000000000000 ) ) ;
#354 = ORIENTED_EDGE ( 'NONE', *, *, #46, .T. ) ;
#355 = ORIENTED_EDGE ( 'NONE', *, *, #241, .T. ) ;
#356 = DIRECTION ( 'NONE',  ( 1.000000000000000000, 0.0000000000000000000, 0.0000000000000000000 ) ) ;
#357 = FACE_OUTER_BOUND ( 'NONE', #308, .T. ) ;
#358 = FACE_OUTER_BOUND ( 'NONE', #254, .T. ) ;
#359 = EDGE_LOOP ( 'NONE', ( #312 ) ) ;
#360 = DIRECTION ( 'NONE',  ( -1.000000000000000000, -0.0000000000000000000, -0.0000000000000000000 ) ) ;
#361 = CARTESIAN_POINT ( 'NONE',  ( 48.60000000000002300, 36.00000000000000700, -1.000000000000000800E-014 ) ) ;
#362 = CARTESIAN_POINT ( 'NONE',  ( 18.23800000000000000, 42.00000000000001400, -1.195110052709658100E-014 ) ) ;
#363 = AXIS2_PLACEMENT_3D ( 'NONE', #5, #6, #16 ) ;
#364 = CC_DESIGN_PERSON_AND_ORGANIZATION_ASSIGNMENT ( #61, #272, ( #185 ) ) ;
#365 = CARTESIAN_POINT ( 'NONE',  ( 39.20000000000005300, 0.0000000000000000000, 0.0000000000000000000 ) ) ;
#366 = EDGE_LOOP ( 'NONE', ( #304 ) ) ;
#367 = FACE_BOUND ( 'NONE', #317, .T. ) ;
#368 = AXIS2_PLACEMENT_3D ( 'NONE', #278, #408, #21 ) ;
#369 = APPROVAL_ROLE ( '' ) ;
#370 = DIRECTION ( 'NONE',  ( -1.000000000000000000, 1.364746275784606000E-032, 4.130293990420969400E-017 ) ) ;
#371 = ADVANCED_FACE ( 'NONE', ( #242, #245 ), #194, .F. ) ;
#372 = CARTESIAN_POINT ( 'NONE',  ( 39.20000000000005300, 0.0000000000000000000, 0.0000000000000000000 ) ) ;
#373 = CYLINDRICAL_SURFACE ( 'NONE', #406, 49.70000000000000300 ) ;
#374 = CIRCLE ( 'NONE', #390, 36.00000000000000700 ) ;
#375 = FACE_BOUND ( 'NONE', #366, .T. ) ;
#376 = DIRECTION ( 'NONE',  ( 0.0000000000000000000, 1.000000000000000000, -2.012072434607647400E-016 ) ) ;
#377 = EDGE_CURVE ( 'NONE', #197, #197, #180, .T. ) ;
#378 = CIRCLE ( 'NONE', #165, 28.50000000000000000 ) ;
#379 = CONICAL_SURFACE ( 'NONE', #30, 45.00000000000000700, 0.8163161429604918200 ) ;
#380 = EDGE_CURVE ( 'NONE', #151, #151, #193, .T. ) ;
#381 = CIRCLE ( 'NONE', #23, 36.00000000000000700 ) ;
#382 = CC_DESIGN_PERSON_AND_ORGANIZATION_ASSIGNMENT ( #161, #31, ( #69 ) ) ;
#383 = CONICAL_SURFACE ( 'NONE', #138, 42.00000000000000700, 0.5681047324744283900 ) ;
#384 = FACE_OUTER_BOUND ( 'NONE', #341, .T. ) ;
#385 = DIRECTION ( 'NONE',  ( -1.000000000000000000, 0.0000000000000000000, 0.0000000000000000000 ) ) ;
#386 = EDGE_CURVE ( 'NONE', #154, #154, #227, .T. ) ;
#387 = DIRECTION ( 'NONE',  ( -1.000000000000000000, -0.0000000000000000000, 0.0000000000000000000 ) ) ;
#388 = CYLINDRICAL_SURFACE ( 'NONE', #20, 31.50000000000000000 ) ;
#389 = DIRECTION ( 'NONE',  ( -1.000000000000000000, -0.0000000000000000000, 0.0000000000000000000 ) ) ;
#390 = AXIS2_PLACEMENT_3D ( 'NONE', #89, #115, #289 ) ;
#391 = AXIS2_PLACEMENT_3D ( 'NONE', #192, #123, #376 ) ;
#392 = CARTESIAN_POINT ( 'NONE',  ( 48.60000000000002300, 0.0000000000000000000, 0.0000000000000000000 ) ) ;
#393 = UNCERTAINTY_MEASURE_WITH_UNIT (LENGTH_MEASURE( 1.000000000000000100E-005 ), #22, 'distance_accuracy_value', 'NONE');
#394 = ADVANCED_FACE ( 'NONE', ( #67, #128 ), #126, .T. ) ;
#395 = CC_DESIGN_PERSON_AND_ORGANIZATION_ASSIGNMENT ( #143, #315, ( #15 ) ) ;
#396 = ADVANCED_FACE ( 'NONE', ( #221, #122 ), #129, .F. ) ;
#397 = FACE_OUTER_BOUND ( 'NONE', #347, .T. ) ;
#398 = DIRECTION ( 'NONE',  ( 0.0000000000000000000, 0.0000000000000000000, 1.000000000000000000 ) ) ;
#399 = AXIS2_PLACEMENT_3D ( 'NONE', #108, #104, #166 ) ;
#400 = APPLICATION_CONTEXT ( 'configuration controlled 3d designs of mechanical parts and assemblies' ) ;
#401 = FACE_OUTER_BOUND ( 'NONE', #359, .T. ) ;
#402 = DIRECTION ( 'NONE',  ( 0.0000000000000000000, 0.0000000000000000000, 1.000000000000000000 ) ) ;
#403 = EDGE_CURVE ( 'NONE', #160, #160, #111, .T. ) ;
#404 = EDGE_CURVE ( 'NONE', #174, #174, #121, .T. ) ;
#405 = FACE_OUTER_BOUND ( 'NONE', #328, .T. ) ;
#406 = AXIS2_PLACEMENT_3D ( 'NONE', #9, #43, #326 ) ;
#407 = DIRECTION ( 'NONE',  ( 0.0000000000000000000, 1.000000000000000000, -2.564102564102566600E-016 ) ) ;
#408 = DIRECTION ( 'NONE',  ( 1.000000000000000000, 0.0000000000000000000, 0.0000000000000000000 ) ) ;
#409 = CARTESIAN_POINT ( 'NONE',  ( 39.20000000000005300, 36.00000000000000700, -1.000000000000000800E-014 ) ) ;
ENDSEC;
END-ISO-10303-21;
